Sum 41 - Slipping Away Chords & Tabs

 

Slipping Away Chords & Tabs

Sum 41 Chords & Tabs

Version: 2 Type: Tab 0 ratings
1 star 2 stars 3 stars 4 stars 5 stars
comments

Slipping Away Tab

-------------------------------------------------------------------------------
			     slipping Away - Band Name
-------------------------------------------------------------------------------
Tabbed by: Chris
Email: A1k2i3r4a5@hotmail.com

Tuning:half step down                                          
this is my first post up and i'm 13 years old! hope you enjoy! (this is as accurate
as I could get it). If you have any complaints e-mail me.
[ Tab from: http://www.guitartabs.cc/tabs/s/sum_41/slipping_away_tab_ver_2.html ]
| x  Mute note
e|--0--------3-------0---------3------x-x--10-----------------------------------------|
B|--0--------3-------0---------3------x-x--10-----------------------------------------|
G|--0--x7----3--x7---0--x3-----3--x3--x-x--10--x8-------------------------------------|
D|--2--------5-------2---------5------x-x--12-----------------------------------------|
A|--2--------5-------2---------5------x-x--12-----------------------------------------|
E|--0--------3-------0---------3------x-x--10-----------------------------------------|



===============================================================================
Comments