Sum 41 - Ride The Chariot To The Devil Chords & Tabs

 

Ride The Chariot To The Devil Chords & Tabs

Sum 41 Chords & Tabs

Version: 1 Type: Tab 0 ratings
1 star 2 stars 3 stars 4 stars 5 stars
comments

Ride The Chariot To The Devil Tab

   
Title: Ride The Chariot To The Devil
Artists: SUM 41
CD: Half Hour of Power
Tabbed By: David Huzyk

I suggest you buy this cd and there new one all killer no filler, as there
both amazing cd's.

standard tuning (EADGBE)
also * means play the chord 8 times

e|------------------------|
B|------------------------|
G|------------------------|
D|11--6/7-----7/9-9-9-9-9-|
A|9---4/5--7--5/7-7-7-7-7-|
E|---------5--------------|

e|-------------|
B|-------------|
G|-------------|X2   also judging by the title of the song, play this
D|11*-7*----9*-|     so it sounds like the stomping of horses hooves
A|9*--5*-7*-7*-|
E|-------5*----|
[ Tab from: http://www.guitartabs.cc/tabs/s/sum_41/ride_the_chariot_to_the_devil_tab.html ]
e|5-5-5-5-5-5-5-9-5-9-7-5-|
B|------------------------|
G|------------------------|X4
D|------------------------|
A|------------------------|
E|------------------------|

e|9-9-9-9-9-9-9-12-9-12-10-9-|
B|---------------------------|
G|---------------------------|X4
D|---------------------------|
A|---------------------------|
E|---------------------------|

e|---------------------------------------------------|
B|---------------------------------------------------|
G|---------------------------------------------------|
D|11--6/7-----7/9-9-9-9-9/11--6/7-----7/9-9-9-9-9/11-|
A|9---4/5--7--5/7-7-7-7-7/9---4/5--7--5/7-7-7-7-7/9--|
E|---------5-----------------------5-----------------|
Comments