Sum 41 - Ride The Chariot To The Devil Chords & Tabs

 

Ride The Chariot To The Devil Chords & Tabs

Sum 41 Chords & Tabs

Version: 1 Type: Bass Tab 0 ratings
1 star 2 stars 3 stars 4 stars 5 stars
comments

Ride The Chariot To The Devil Bass Tab

Song:Ride the Chariot to the Devil
Band:Sum 41
Tab by:p_predictable_ae@hotmail.com
Instrument:Bass
Tuning: Normal
>=Hold

Intro
G------------------------------------------------------
D--4-4-0>-----2-2-2-2-2-4-4-0>-----2-2-2-2-2---------
A---------0-0-------------------0-0-------------------
E------------------------------------------------------
[ Tab from: http://www.guitartabs.cc/tabs/s/sum_41/ride_the_chariot_to_the_devil_btab.html ]
Body
You need to listen to the song to get the rhythem.
G-------------------------------------------------------------------------------
D--4-4-4-4-4-4-4-4-4-4-4-4-0-0-0-0-0-0-0-0-0-0-0-0---------------------------
A-----------------------------------------------------0-0-0-0-0-0-0-0-0-0-0-0-
E-------------------------------------------------------------------------------

G----------------------------
D--2-2-2-2-2-2-2-2-2-2-2-2-
A----------------------------
E----------------------------

Outro
G------------------------------------------------------
D--4-4-0>-----2-2-2-2-2-4-4-0>-----2-2-2-2-2---------
A---------0-0-------------------0-0-------------------
E------------------------------------------------------

Listen to the recording to figure out how many times to play each section.
Email me if you have questions or comments.
Comments