Sum 41 - Rhythms Chords & Tabs

 

Rhythms Chords & Tabs

Sum 41 Chords & Tabs

Version: 5 Type: Tab 0 ratings
1 star 2 stars 3 stars 4 stars 5 stars
comments

Rhythms Tab

Sum 41
Rhythms

awesome song... and fairly easy to play. i am sure that there's only one guitar part
for this song (deryck doesn't play). everything is in order, so follow the tab all the
way through. no shenanigans.

key:

 / = slide up
 \ = slide down
 . = palm-mute
 x = left-hand mute

that's all you need to know for this tab

----------------------------------------------------------------------------
Lead Guitar (there's no second guitar for this song)

intro

E|----------------------------------------------|
B|----------------------------------------------|
G|--13-13-13--11--11-11-11--13-13-13--9--9-9-9--|
D|---x--x--x---x---x--x--x---x--x--x--x--x-x-x--|
A|--11-11-11---9---9--9--9--11-11-11--7--7-7-7--| (x4)
E|----------------------------------------------|

E|----------|
B|----------|
G|--9--9\x--|
D|--x--x\x--|
A|--7--7\x--| (x1)
E|----------|
*mute right after slide

verse

E|-----------------------------------------------|
B|-----------------------------------------------|
G|-----------------6-666666--2-222222--2-222222--|
D|--x/x--2-222222--6-666666--2-222222--2-222222--|
A|--x/x--2-222222--4-444444--0-000000--0-000000--| (x1)
E|--x/x--0-000000--------------------------------|

E|-----------------------------|
B|----------------------r------|
G|------------6-666666--e--2~--|
D|--2-222222--6-666666--s--2~--|
A|--2-222222--4-444444--t--0~--| (x1)
E|--0-000000-------------------|

pre-chorus

E|-----------------------------|
B|-----------------------------|
G|-------6~---6\2~---44444444--|
D|--2~---6~---6\2~---44444444--|
A|--2~---4~---4\0~---22222222--| (x1)
E|--0~-------------------------|

chorus

E|---------------------------------------|
B|---------------------------------------|
G|-----------6--66-6--2--22-2--44444444--|
D|--2--22-2--6--66-6--2--22-2--44444444--|
A|--2--22-2--4--44-4--0--00-0--22222222--| (x2)
E|--0--00-0------------------------------|

E|-------------------------------------------|
B|-------------------------------------------|
G|--9-9-9999--9-9-9999--6-6-6666--2-x--44-x--|
D|--9-9-9999--9-9-9999--6-6-6666--2-x--44-x--|
A|--7-7-7777--7-7-7777--4-4-4444--0-x--22-x--| (x2)
E|------------7-7-7777-----------------------|

(here's an alternative for the second part of the chorus)

E|-------------------------------------------|
B|-------------------------------------------|
G|--9-9-9999--9-9-9999--6-6-6666--2-x--44-x--|
D|--9-9-9999--9-9-9999--6-6-6666--2-x--44-x--|
A|--7-7-7777--6-6-6666--4-4-4444--0-x--22-x--| (x2)
E|-------------------------------------------|

post-chorus

E|----------------------------------------------|
B|----------------------------------------------|
G|--13-13-13--11--11-11-11--13-13-13--9--9-9-9--|
D|---x--x--x---x---x--x--x---x--x--x--x--x-x-x--|
A|--11-11-11---9---9--9--9--11-11-11--7--7-7-7--| (x4)
E|----------------------------------------------|

verse (fast plam-muting)

E|-----------------------------------------|
B|-----------------------------------------|
G|--9\44-22----66666666-22222222-22222222--|
D|--x\44-22-66-66666666-22-22-2--22-22-2---|
A|--7\22-00-66-44444444-00-00-0--00-00-0---| (x1)
E|----------44-----------------------------|
      .. .. .. ........ .. .. .  .. .. .

E|------------------------------------------|
B|------------------------------------------|
G|-----44-22----66666666-22222222-22222222--|
D|--22-44-22-66-66666666-22-222-2-22222222--|
A|--22-22-00-66-44444444-00-000-0-00000000--| (x1)
E|--00-------44-----------------------------|
    .. .. .. .. ........ .. ... .
[ Tab from: http://www.guitartabs.cc/tabs/s/sum_41/rhythms_tab_ver_5.html ]
E|------------------------------------------|
B|------------------------------------------|
G|------------6-666666--2-222222--2-222222--|
D|--2-222222--6-666666--2-222222--2-222222--|
A|--2-222222--4-444444--0-000000--0-000000--| (x1)
E|--0-000000--------------------------------|

E|-------------------------------|
B|---------------------------5~--|
G|------------6-666666--2~---4~--|
D|--2-222222--6-666666--2~---2~--|
A|--2-222222--4-444444--0~---2~--| (x1)
E|--0-000000-----------------0~--|

bridge

E|-----------------------------------|
B|--5~-------------r--------5~---5~--|
G|--x~---9~---9~---e---9~---x~---2~--|
D|--6~---9~---9~---s---9~---6~---2~--|
A|--4~---6~---7~---t---7~---4~---0~--| (x2)
E|-----------------------------------|

pre-chorus

E|---------------------------------------|
B|---------------------------------------|
G|-----------66666666-22222222-22222222--|
D|--22222222-66666666-22222222-22222222--|
A|--22222222-44444444-00000000-00000000--| (x1)
E|--00000000-----------------------------|
    ........ ........ ........ ........

E|-------------------------------------|
B|-------------------------------------|
G|-----------66666666-2--22--22--22-4--|
D|--22222222-66666666-2--22--22--22-4--|
A|--22222222-44444444-0--00--00--00-2--| (x1)
E|--00000000---------------------------|
    ........ ........ 

chorus

E|--------------------------------------|
B|--------------------------------------|
G|-----------6--66-6--2--22-2--4--44-4--|
D|--2--22-2--6--66-6--2--22-2--4--44-4--|
A|--2--22-2--4--44-4--0--00-0--2--22-2--| (x1)
E|--0--00-0-----------------------------|

E|---------------------------------------|
B|---------------------------------------|
G|-----------6--66-6--2--22-2--44444444--|
D|--2--22-2--6--66-6--2--22-2--44444444--|
A|--2--22-2--4--44-4--0--00-0--22222222--| (x1)
E|--0--00-0------------------------------|

E|--------------------------------------|
B|--------------------------------------|
G|-----------6--66-6--2--22-2--4--44-4--|
D|--2--22-2--6--66-6--2--22-2--4--44-4--|
A|--2--22-2--4--44-4--0--00-0--2--22-2--| (x1)
E|--0--00-0-----------------------------|

E|---------------------------------------|
B|---------------------------------------|
G|-----------6--66-6--2--22-2--44444444--|
D|--2--22-2--6--66-6--2--22-2--44444444--|
A|--2--22-2--4--44-4--0--00-0--22222222--| (x1)
E|--0--00-0------------------------------|

E|-------------------------------------------|
B|-------------------------------------------|
G|--9-9-9999--9-9-9999--6-6-6666--2-x--44-x--|
D|--9-9-9999--9-9-9999--6-6-6666--2-x--44-x--|
A|--7-7-7777--7-7-7777--4-4-4444--0-x--22-x--| (x2)
E|------------7-7-7777-----------------------|

(here's an alternative for the second part of the chorus)

E|-------------------------------------------|
B|-------------------------------------------|
G|--9-9-9999--9-9-9999--6-6-6666--2-x--44-x--|
D|--9-9-9999--9-9-9999--6-6-6666--2-x--44-x--|
A|--7-7-7777--6-6-6666--4-4-4444--0-x--22-x--| (x2)
E|-------------------------------------------|

outro

E|----------------------------------------------|
B|----------------------------------------------|
G|--13-13-13--11--11-11-11--13-13-13--9--9-9-9--|
D|---x--x--x---x---x--x--x---x--x--x--x--x-x-x--|
A|--11-11-11---9---9--9--9--11-11-11--7--7-7-7--| (x4)
E|----------------------------------------------|

E|-------------------------|
B|-------------------------|
G|--13/----13/----13/------|
D|---x/2----x/2----x/2-2~--|
A|--11/2---11/2---11/2-2~--| (x2)
E|----/0-----/0-----/0-0~--|


there you go... 100% correct. if you have any comments or questions you can e-mail
me at killinginthename247@yahoo.com. enjoy!
Comments