Sum 41 - Rhythms Chords & Tabs

 

Rhythms Chords & Tabs

Sum 41 Chords & Tabs

Version: 4 Type: Tab 0 ratings
1 star 2 stars 3 stars 4 stars 5 stars
comments

Rhythms Tab

   
-------------------------------------------------------------------------------
                                    RHYTHMS - Sum 41
-------------------------------------------------------------------------------
 
Tabbed by: Dan (Lamar148@aol.com)

Intro: Guitar 1
e-------------------------------
B-------------------------------
G-13--11--13--------------------
D--x---x---x--------------------
A-11---9--11--------------------
E-------------------------------

Intro: Guitar 2
e-------------------------------
B-------------------------------
G--9--11---9--------------------
D--x---x---x--------------------
A--7---9---7--------------------
E-------------------------------

Verse/Prechorus
e-----------------------------------------
B-----------------------------------------
G-----6-----------------------------------
D-2---6---7---9---------------------------
A-2---4---7---9---------------------------
E-0-------5---7---------------------------

Chorus "Since You Found Me Out..."
e-------------------------------
B-------------------------------
G-9-----------------------------
D-9---9--11---7-----------------
A-7---9--11---7-----------------
E-----7---9---5-----------------
[ Tab from: http://www.guitartabs.cc/tabs/s/sum_41/rhythms_tab_ver_4.html ]
Bridge   E   C#  A
e--------0---0---0------------------------
B--------0---0---2------------------------
G--------9---6---2------------------------
D--------9---6---2------------------------
A--------7---4----------------------------
E-----------------------------------------

Outro: Guitar 1 (play this 2x)
e-----------------------------------------
B-----------------------------------------
G-9-9----9-9----9-9-----------------------
D-x-x----x-x----x-x-----------------------
A-7-7----7-7----7-7-----------------------
E-----------------------------------------

Outro: Guitar 2 (play this 2x)
e-----------------------------------------
B-----------------------------------------
G-----------------------------------------
D----2------2-------2---------------------
A----2------2-------2---------------------
E----0------0-------0---------------------

The two harmonizing octave guitars on the intro sound really cool. 
And as for the outro, the two guitars are quickly played guitar 1 
then guitar 2. Listen to the cd to see what I mean. IF you have any 
questions or comments feel free to email me Lamar148@aol.com 

-------------------------------------------------------------------------------


Comments