Sum 41 - Rhythms Chords & Tabs

 

Rhythms Chords & Tabs

Sum 41 Chords & Tabs

Version: 3 Type: Tab 0 ratings
1 star 2 stars 3 stars 4 stars 5 stars
comments

Rhythms Tab

sum 41-rhythms
track 5
TempVoid04@aol.com

i give credit to lamar148@aol.com for the intro. he did it, not me. im a lazy 
fool! hahahaha
if the tab looks messed up, save it and view it in geneva

intro-gtr 1
E------------------------------- 
B------------------------------- 
G-13--11--13--------------------
D---------------------------- 
A-11---9--11--------------------  4x
E------------------------------- 
gtr 2
E-------------------------------
B------------------------------- 
G--9--11---9-------------------- 
D----------------------------
A--7---9---7--------------------
E-------------------------------  4x
verse-strum
E----------------------------------------- 
B-----------------------------------------
G-----6----------------------------------- 
D-2---6---7---*----9--------------------------- 
A-2---4---7---*----9--------------------------- 
E-0-------5----*---7---------------------------  2x
"get it back but you're not obliged to say..."              *mute the 2nd 
time here in between the chords

E----------------------------------------- 
B----------------------------------------- hit each chord and hold it out
G-----6----------------------------------- 
D-2---6---7-------9-9-9-9-------------------------- 
A-2---4---7-------9-9-9-9-------------------------- 
E-0-------5-------7-7-7-7-------------------------- 1x
"simple words i can't relate"
prechorus
E----------------------------------------- 
B------------------------------------------ 
G--------------- 6--x-6-6--x-6------------------- 
D-2--x-2-2--x-2-6--x-6-6--x-6-7--x-7-7--x-7-9--x-9-9--x-9--------- 
A-2--x-2-2--x-2-4--x-4-4--x-4-7--x-7-7--x-7-9--x-9-9--x-9--------- 
E-0--x-0-0--x-0----------------5--x-5-5--x-5-7--x-7-7--x-7--- 2x
"i know what i want"
chorus-gtr 1                                            gtr 2
E---------------------------------------------------                    
B---------------------------------------------------  
G-9----------------------------9---9-------------------------  
D-9----9---11----7-x-9------------------11---7-x-9--------------  
A-7----9---11----7-x-9--------7----7---11----7-x-9----------------  
E------7----9----5-x-7------------------9-----5-x-7------------  2x
"since you found me out"
intro 4x
verse-i dont think that this is TOTALLY right, but its pretty darn close. if 
you play it with the bass line it sounds good, but it doesn't sound that 
great just by itself. give it a try
E------------------------------------------------------------------------     
    
B------------------------------------------------------------------------     
    
G-----------------------------------2-2-2-2-2-2-2-2-2-2-2-2-2-2-2-2---        
    
D-----------------------------------2-2-2-2-2-2-2-2-2-2-2-2-2-2-2-2---        
    
A---------0-0-0-0-4-4-4-4-4-4-4-4-0-0-0-0-0-0-0-0-0-0-0-0-0-0-0-0---    
E-0-0-0-0--------------------------------------------------------------- 2x
pm............................................................................

............   ...........    ..      ......       .....      ....

E----------------------------------------- strum
B-----------------------------------------
G-----6----------------------------------- 
D-2---6---7-------9--------------------------- 
A-2---4---7-------9--------------------------- 
E-0-------5-------7---------------------------  2x
"you would say that it's only for a day"
[ Tab from: http://www.guitartabs.cc/tabs/s/sum_41/rhythms_tab_ver_3.html ]
bridge-clean
E-0---0--------0-----0---0---0-----0---0---0-----0---0---0------- 
B-0---0--------0-----0---0---0-----0---0---0-----0---0---0-------
G-9---6---8----2-----9---6---2-----9---6---2-----9---6---2----- 
D-9---6---8----2-----9---6---2-----9---6---2-----9---6---2-----
A-7---4---6----0-----7---4---0-----7---4---0-----7---4---0-----
E----------------------------------------------------------------
"say... simple words i can't relate" 
note-the 688 (Eb) chord clashes with the open high e and b strings, so make 
sure not to hit them on accident with that chord

E------------------------------------------------------------------------
B-----------------------------------------------------------------------
G------------------6-6-6-6-6-6-6-6-------------------------------------
D-2-2-2-2-2-2-2-2-6-6-6-6-6-6-6-6-7-7-7-7-7-7-7-7-7-7-7-7-7-7-7-7---
A-2-2-2-2-2-2-2-2-4-4-4-4-4-4-4-4-7-7-7-7-7-7-7-7-7-7-7-7-7-7-7-7--
E-0-0-0-0-0-0-0-0-------------------5-5-5-5-5-5-5-5-5-5-5-5-5-5-5-5--- 2x
"all the time you thought worth saving"         palm mute everything except 
the A chord on the last time
prechorus
E----------------------------------------- 
B------------------------------------------ 
G--------------- 6--x-6-6--x-6------------------- 
D-2--x-2-2--x-2-6--x-6-6--x-6-7--x-7-7--x-7-9--x-9-9--x-9--------- 
A-2--x-2-2--x-2-4--x-4-4--x-4-7--x-7-7--x-7-9--x-9-9--x-9--------- 
E-0--x-0-0--x-0----------------5--x-5-5--x-5-7--x-7-7--x-7--- 2x
"i know what i want"
chorus-gtr 1                                            gtr 2
E---------------------------------------------------                    
B---------------------------------------------------  
G-9----------------------------9---9-------------------------  
D-9----9---11----7-x-9------------------11---7-x-9--------------  
A-7----9---11----7-x-9--------7----7---11----7-x-9----------------  
E------7----9----5-x-7------------------9-----5-x-7------------  2x
"since you found me out"

intro 4x
outro-gtr 1                                                     gtr 2
E------------------------------------------------
B------------------------------------------------
G-------------------------9--9--9-----9--9--9----------
D-2--2--2----2--2--2-----------------------------------
A-2--2--2----2--2--2-----7--7--7-----7--7--7-----------------
E-0--0--0----0--0--0-----------------------------------
the drum thing. you always have to let good drummers have their moment to 
shine so that they dont quit the band

Mad in a way but I don't say,
It's what you're used to.
I got the words but can't convey.
I know you'll turn it all around,
Cause that's the rhythms that you go through
Get it back and you're not obliged to say,
Not intact but you're better off anyway.
Somehow it's never up to me.
What if I would say?
Simple words I can't relate.
I don't place upon your view,
It's the rhythms that you go through.
I know what I want,
You just take me through the motions.
I know what I want,
And that's more than you can say.
Since you found me out, x4
Your story still remains
It's so unlike still you stay the same,
And all the while you're counting on your day to come,
But nothing ever told you.
You would say that it's only for a day.
Yesterday's last week tomorrow's on its way.
And I'm falling faster all the time.
What if I would say?
Simple words I can't relate.
What came easy is now too late.
And it was always standing right in front of me.
I know what I want,
You just take me through the motions.
I know what I want,
And that's more than you can say.
All the time you thought worth saving,
You still end up with memories fading.
After all that you wouldn't do,
It makes no sense, but it's that rhythms that you go through.
I know what I want,
You just take me through the motions.
I know what I want,
And that's more than you can say. I know what I want,
You just take me through the motions.
I know what I want,
And that's more than you can say.
Since you found me out,
Since you found me out,
Since you found me out,
Since you found me out.


Comments