Sum 41 - Rhythms Chords & Tabs

 

Rhythms Chords & Tabs

Sum 41 Chords & Tabs

Version: 2 Type: Tab 0 ratings
1 star 2 stars 3 stars 4 stars 5 stars
comments

Rhythms Tab

   
#----------------------------------PLEASE NOTE---------------------------------#
#This file is the author's own work and represents their interpretation of the #
#song. You may only use this file for private study, scholarship, or research. #
#------------------------------------------------------------------------------#
Song: Rhythms
Artist: Sum 41
Album: All Killer No Filler
tabbed by ZeRoFoOL

Intro A (Guitar 1)
e----------------------------------------------------------
B----------------------------------------------------------
G--13-13-13--11--11-11-11---13-13-13--9--9-9-9-------------
D---x--x--x---x---x--x--x----x--x--x--x--x-x-x------------- x4
A--11-11-11---9---9--9--9---11-11-11--7--7-7-7-------------
E----------------------------------------------------------

Intro B (Guitar 2)
e----------------------------------------------------------
B----------------------------------------------------------
G----------------------------------------------------------
D--6-6-6-4--4-4-4--6-6-6--6-6-6-6-------------------------- x4
A----------------------------------------------------------
E----------------------------------------------------------

Verse 1
e----------------------------------------------------------
B----------------------------------------------------------
G---------------6-6-6-6-6-6--------------------------------
D--2-2-2-2-2-2--6-6-6-6-6-6--7-7-7-7-7-7-7-7-7-7-7-7-------
A--2-2-2-2-2-2--4-4-4-4-4-4--7-7-7-7-7-7-7-7-7-7-7-7-------
E--0-0-0-0-0-0---------------5-5-5-5-5-5-5-5-5-5-5-5-------
("Get it back...")

(continued)
e----------------------------------------------------------
B----------------------------------------------------------
G---------------6-6-6-6-6-6----------6---6-----------------
D--2-2-2-2-2-2--6-6-6-6-6-6--7---2---6---6/7--9-9-9-9-9-9--
A--2-2-2-2-2-2--4-4-4-4-4-4--7---2---4---4/7--9-9-9-9-9-9--
E--0-0-0-0-0-0---------------5---0--------/5--7-7-7-7-7-7--


Chorus   E      C#m    A     B
e--------xxxx---4x44---xxxx--------------------------------
B--------9x99---5x55---2x22--44-4-4-4-4-4------------------
G--------9x99---6x66---2x22--44-4-4-4-4-4------------------
D--------9x99---6x66---2x22--44-4-4-4-4-4------------------ x2
A--------7x77---4x44---0x00--22-2-2-2-2-2------------------
E----------------------------------------------------------


Post-Chorus   E          C#m        A         B
e-------------x-x-xxxx---4-4-4444---x-x-xxxx---------------
B-------------9-9-9999---5-4-5555---2-2-2222--2x-2-4x------
G-------------9-9-9999---6-6-6666---2-2-2222--2x-2-4x------
D-------------9-9-9999---6-6-6666---2-2-2222--2x-2-4x------
A-------------7-7-7777---4-4-4444---0-0-0000--2x-2-2x------
E----------------------------------------------------------


(Continued)   E          C#m        A         B
e-------------x-x-xxxx---4-4-4444---x-x-xxxx---------------
B-------------9-9-9999---5-4-5555---2-2-2222--22-4-4444----
G-------------9-9-9999---6-6-6666---2-2-2222--22-4-4444----
D-------------9-9-9999---6-6-6666---2-2-2222--22-4-4444----
A-------------7-7-7777---4-4-4444---0-0-0000--22-2-2222----
E----------------------------------------------------------


(Guitar 1)
e----------------------------------------------------------
B----------------------------------------------------------
G--13-13-13--11--11-11-11---13-13-13--9--9-9-9-------------
D---x--x--x---x---x--x--x----x--x--x--x--x-x-x------------- x4
A--11-11-11---9---9--9--9---11-11-11--7--7-7-7-------------
E----------------------------------------------------------

(Guitar 2)
e----------------------------------------------------------
B----------------------------------------------------------
G----------------------------------------------------------
D--6-6-6-4--4-4-4--6-6-6--6-6-6-6-------------------------- x4
A----------------------------------------------------------
E----------------------------------------------------------
[ Tab from: http://www.guitartabs.cc/tabs/s/sum_41/rhythms_tab_ver_2.html ]
Verse 2                                 end on
e-----------------------------------|  |----------------------
B-----------------------------------|  |----------------------
G-----------6m----------------------|  |----------------------
D--2m-------6m-(x8)--7m-7m-7-7m-7---|  |--7-7-7-7-7-7-7-7-----
A--2m-(x8)--4m-------7m-7m-7-7m-7---|x2|--7-7-7-7-7-7-7-7-----
E--0m----------------5m-5m-5-5m-5---|  |--5-5-5-5-5-5-5-5-----


(Continued)
e----------------------------------------------------------
B----------------------------------------------------------
G---------------6-6-6-6-6-6--------------------------------
D--2-2-2-2-2-2--6-6-6-6-6-6--7-7-7-7-7-7-7-7-7-7-7-7-------
A--2-2-2-2-2-2--4-4-4-4-4-4--7-7-7-7-7-7-7-7-7-7-7-7-------
E--0-0-0-0-0-0---------------5-5-5-5-5-5-5-5-5-5-5-5-------


(continued)
e----------------------------------------------------------
B----------------------------------------------------------
G---------------6-6-6-6-6-6--------------------------------
D--2-2-2-2-2-2--6-6-6-6-6-6--7-----------------------------
A--2-2-2-2-2-2--4-4-4-4-4-4--7-----------------------------
E--0-0-0-0-0-0---------------5-----------------------------


Bridge 1  E   C#m A
e---------x---4---x-----x---4---x---------------------------
B---------9---5---2-----9---5---2---------------------------
G---------9---6---2-----9---6---2---------------------------
D---------9---6---2-----9---6---2--------------------------- x2
A---------7---4---0-----7---4---0---------------------------
E-----------------------------------------------------------
("Simple words I can't relate...")

Bridge 2
e----------------------------------------------------------
B----------------------------------------------------------
G----------6m------------------------6m--------------------
D--2m------6m-(x8)-7m--------2m------6m-(x8)--7--7--7--7-9-
A--2m-(x8)-4m------7m-(x16)--2m-(x8)-4m-------7--7--7--7-9-
E--0m--------------5m--------0m---------------5--5--5--5-7-


Outro    E      C#m    A     B       E      C#m    A     B
e--------xxxx---4x44---xxxx--------|-xxxx---4x44---xxxx---------------
B--------9x99---5x55---2x22--4x44--|-9x99---5x55---2x22--44-4-4-4-4-4-
G--------9x99---6x66---2x22--4x44--|-9x99---6x66---2x22--44-4-4-4-4-4-
D--------9x99---6x66---2x22--4x44--|-9x99---6x66---2x22--44-4-4-4-4-4- x2
A--------7x77---4x44---0x00--2x22--|-7x77---4x44---0x00--22-2-2-2-2-2-
E----------------------------------|----------------------------------


(Continued)   E          C#m        A         B
e-------------x-x-xxxx---4-4-4444---x-x-xxxx---------------
B-------------9-9-9999---5-4-5555---2-2-2222--2x-2-4x------
G-------------9-9-9999---6-6-6666---2-2-2222--2x-2-4x------
D-------------9-9-9999---6-6-6666---2-2-2222--2x-2-4x------
A-------------7-7-7777---4-4-4444---0-0-0000--2x-2-2x------
E----------------------------------------------------------


(Continued)   E          C#m        A         B
e-------------x-x-xxxx---4-4-4444---x-x-xxxx---------------
B-------------9-9-9999---5-4-5555---2-2-2222--22-4-4444----
G-------------9-9-9999---6-6-6666---2-2-2222--22-4-4444----
D-------------9-9-9999---6-6-6666---2-2-2222--22-4-4444----
A-------------7-7-7777---4-4-4444---0-0-0000--22-2-2222----
E----------------------------------------------------------


Outro A (Guitar 1)
e----------------------------------------------------------
B----------------------------------------------------------
G--13-13-13--11--11-11-11---13-13-13--9--9-9-9-------------
D---x--x--x---x---x--x--x----x--x--x--x--x-x-x-------------
A--11-11-11---9---9--9--9---11-11-11--7--7-7-7-------------
E----------------------------------------------------------

Outro B (Guitar 2)
e----------------------------------------------------------
B----------------------------------------------------------
G----------------------------------------------------------
D--6-6-6-4--4-4-4--6-6-6--6-6-6-6--------------------------
A----------------------------------------------------------
E----------------------------------------------------------

Any questions or comments? E-mail me at redsoxkm@telocity.com, or IM me on ZeRoFo0L
Comments