Sum 41 - Rhythms Chords & Tabs

 

Rhythms Chords & Tabs

Sum 41 Chords & Tabs

Version: 2 Type: Bass Tab 0 ratings
1 star 2 stars 3 stars 4 stars 5 stars
comments

Rhythms Bass Tab

Artist:Sum 41
Song:Rhythms
Album:All Killer No Filler

Great song and it looks really cool when you play it.

Intro
G:----------|  |----------|  |----------|  |----------|
D:----9-999-|x2|----6-666-|x2|-999------|x2|-999------|x2
A:-777------|  |-444------|  |----9-999-|  |----7-777-|
E:----------|  |----------|  |----------|  |----------|

Verse
G:------------------------------------|
D:---997766---------------------------|x2
A:-77-------44446666-0000000000002244-|
E:------------------------------------|

G:------------------------------------|
D:------------------------------------|x1
A:-77777777-44444444------------------|
E:-------------------5555555555557799-|

G:------------------------|
D:------------------------|x1
A:-77777777-44444444------|
E:---------------------5~-|

Pre Chorus
G:-----------------------------------------------------|
D:-----------------------------------------------------|x1
A:-7777777777777777-4444444444444444-------------------|
E:-----------------------------------55555555-77777777-|

1st Chorus
G:-------------------------------------|
D:-------------------------------------|x2
A:-77777777-44444444-------------------|
E:-------------------55555555-77777777-|

G:-------------------------------------|
D:-------------------------------------|x2
A:-77777777----------------------------|
E:----------77777777-99999999-55557777-|

Repeat Intro
[ Tab from: http://www.guitartabs.cc/tabs/s/sum_41/rhythms_btab_ver_2.html ]
2nd Verse
G:------------------------------------|
D:---997766---------------------------|x2
A:-77-------44446666-0000000000002244-|
E:------------------------------------|

Pre Bridge
G:------------------------------------|
D:------------------------------------|x1
A:-77777777-44444444------------------|
E:-------------------5555555555557799-|

G:---------------------------------------|
D:---------------------------------------|x1
A:-77777777-44444444------------------7~-|
E:-------------------5~------------------|

Rest during 'Simple words I can't relate' bit.

Bridge Chorus after rest
G:------------------------------------|
D:------------------------------------|x2
A:-7~-------4~------------------------|
E:-------------------5~---------------|

Bridge Ending
G:------------------------------------|
D:------------------------------------|x1
A:-77777777-44444444------------------|
E:-------------------5555555555555555-|

G:------------------------------------|
D:------------------------------------|x1
A:-77777777-44444444------------------|
E:-------------------5555555555557799-|

Final Chorus
G:-------------------------------------|
D:-------------------------------------|x4
A:-77777777-44444444-------------------|
E:-------------------55555555-77777777-|

G:-------------------------------------|
D:-------------------------------------|x2
A:-77777777----------------------------|
E:----------77777777-99999999-55557777-|

Repeat Intro

Outro
G:---------------------------------|
D:---------------------------------|
A:-77--77--77--------77--77--77----|
E:---0---0---00~-------0---0---00~-|
Comments