Sum 41 - Pieces Chords & Tabs

 

Pieces Chords & Tabs

Sum 41 Chords & Tabs

Version: 9 Type: Tab 0 ratings
1 star 2 stars 3 stars 4 stars 5 stars
comments

Pieces Tab

Pieces - Sum 41
Drop D Tuning
Tabbed by YoYoJoe

Updated 06/21/05 - Fixed the lead & Rhythem, so pretty much everything

Main Riff
|----1-1----1---------------------|
|----3-3----3---------------------|
|----2-2----2-----3-3---3---3-----|
|----0-0----0-----3-3-3-3-3-3-3-3-|
|-0------0----0-0-1-1-1-1-1-1-1-1-|
|-0------0----0-0-----------------|

|---------------------------------|
|---------------------------------|
|---------------------------------|
|---3---3---3-------2---2---2-----|
|-3-3-3-3-3-3-3-3-2-2-2-2-2-2-2-2-|
|-3-3-3-3-3-3-3-3-2-2-2-2-2-2-2-2-|

Chorus 1
|-------------------------|
|-------10----------10----|
|-12-10----10-12-10----10-| X2
|-------------------------|
|-------------------------|
|-------------------------|

|-------------------------|
|-------------------------|
|----10-12-10----10-12-10-|
|-12----------12----------|
|-------------------------|
|-------------------------|

|-------------------------|
|-------------------------|
|----10-12-10----10-12-10-|
|-10----------10----------|
|-------------------------|
|-------------------------|

|----|
|----|
|----|
|-12-|
|----|
|----|

Guitar two (Rhythm Figure 1)
|-------------------------------------|
|-3-3-3-33-3-3-3-33-3-3-3-33-3-3-3-33-|
|-2-2-2-22-2-2-2-22-2-2-2-22-2-2-2-22-|
|-0-0-0-00-0-0-0-00-0-0-0-00-0-0-0-00-|
|-------------------------------------|
|-------------------------------------|

|-------------------------------------|
|-------------------------------------|
|-------------------------------------|
|-3-3-3-33-3-3-3-33-2-2-2-22-2-2-2-22-|
|-3-3-3-33-3-3-3-33-2-2-2-22-2-2-2-22-|
|-3-3-3-33-3-3-3-33-2-2-2-22-2-2-2-22-|

Verse 2
Guitar one
|-0--0--0--0-0-0-0--0--0--0--0--0--0--0-0-0-0--0--0--0--|
|-10-10-10-10101010-10-10-10-11-11-11-11111111-11-11-11-|
|-------------------------------------------------------|
|-------------------------------------------------------|
|-------------------------------------------------------|
|-------------------------------------------------------|

|-0--0--0--0-0-0-0--0--0--0--0-0-0-0000-0-0-0-|
|-10-10-10-10101010-10-10-10-8-8-8-8888-8-8-8-|
|---------------------------------------------|
|---------------------------------------------|
|---------------------------------------------|
|---------------------------------------------|

Guitar two (Rhythm Figure 2)
|-----------------------------------|
|-3-3-3-3333-3-3-3------------------|
|-2-2-2-2222-2-2-2------------------|
|-0-0-0-0000-0-0-0-3-3-3-3333-3-3-3-|
|------------------1-1-1-1111-1-1-1-|
|-----------------------------------|

|-----------------------------------|
|-----------------------------------|
|------------------5-5-5-5555-5-5-5-|
|-3-3-3-3333-3-3-3-5-5-5-5555-5-5-5-|
|-3-3-3-3333-3-3-3-3-3-3-3333-3-3-3-|
|-3-3-3-3333-3-3-3------------------|
[ Tab from: http://www.guitartabs.cc/tabs/s/sum_41/pieces_tab_ver_9.html ]
Chorus 2
Guitar one
|-0--0--0--0-0--0--0--0--0-0--0--0--0--0-0--0--0--0--0-0--|
|-11-11-11-1111-11-11-11-1111-11-11-11-1111-11-11-11-1111-|
|---------------------------------------------------------|
|---------------------------------------------------------|
|---------------------------------------------------------|
|---------------------------------------------------------|

|-0--0--0--0-0--0--0--0--0-0--0-0-0-00-0-0-0-00-0--|
|-10-10-10-1010-10-10-10-1010-8-8-8-88-8-8-8-88-11-|
|--------------------------------------------------|
|--------------------------------------------------|
|--------------------------------------------------|
|--------------------------------------------------|

Guitar two (Rhythem Figure 3)
|-------------------------------------|
|-3-3-3-33-3-3-3-33-3-3-3-33-3-3-3-33-|
|-2-2-2-22-2-2-2-22-2-2-2-22-2-2-2-22-|
|-0-0-0-00-0-0-0-00-0-0-0-00-0-0-0-00-|
|-------------------------------------|
|-------------------------------------|

|---------------------------------------|
|---------------------------------------|
|---------------------------------------|
|-3-3-3-33-3-3-3-33-3-3-3-33-3-3-3-33-5-|
|-3-3-3-33-3-3-3-33-1-1-1-11-1-1-1-11-5-|
|-3-3-3-33-3-3-3-33-------------------5-|

|----|
|----|
|----|
|-5--|
|-5--|
|-5--|

Presolo
Guitar 1
|-0--0--0--0--0--0--0--0--0--0--0--0--0--0--0--0--|
|-10-10-10-11-10-10-10-11-10-10-10-11-13-13-13-13-|
|-------------------------------------------------|
|-------------------------------------------------|
|-------------------------------------------------|
|-------------------------------------------------|

Guitar 2
|---------------------------------|
|---------------------------------|
|---------------------------------|
|-3-3-3-3-3-3-3-3-3-3-3-3-3-3-3-3-|
|-3-3-3-3-3-3-3-3-1-1-1-1-1-1-1-1-|
|-3-3-3-3-3-3-3-3-----------------|

Solo
Guitar 1
|-------8--------7-------5-------5---|
|-10--------10-------8-------6-8---8-|
|----10---9----7---7---5---5---------| X2
|------------------------------------|
|------------------------------------|
|------------------------------------|

|-0-0-0-00-0-0-0-00-0-0-0-00-0-0-0-00-|
|-8-8-8-88-8-8-8-88-8-8-8-88-8-8-8-88-|
|-------------------------------------|
|-------------------------------------|
|-------------------------------------|
|-------------------------------------|

Guitar 2
|---------------------------------|
|-3-3-3-3-------------------------|
|-2-2-2-2-------------------------|
|-0-0-0-0-3-3-3-3-3-3-3-3-5-5-5-5-|
|---------1-1-1-1-3-3-3-3-3-3-3-3-|
|-----------------3-3-3-3---------|

|-------------------------------------|
|-------------------------------------|
|-------------------------------------|
|-3-3-3-33-3-3-3-33-3-3-3-33-3-3-3-33-|
|-1-1-1-11-1-1-1-11-1-1-1-11-1-1-1-11-|
|-------------------------------------|

Ending
|----|
|----|
|----|
|-3--|
|-3--|
|-3--|
Comments