Sum 41 - Pieces Chords & Tabs

 

Pieces Chords & Tabs

Sum 41 Chords & Tabs

Version: 6 Type: Tab 0 ratings
1 star 2 stars 3 stars 4 stars 5 stars
comments

Pieces Tab

   
hey this song rocks,ive included the bridge cos i couldnt see a tab with it 
well with an acoustic on rhythm and a slightly dissorted guitar with a fair bit of reverb on lead.enjoy
intro/verse
  Db/Dminor7  Bb/A#       F           C
e-1-1-11-11-1-------------------------------------|
B-3-3-33-33-3-------------------------1-1-11-11-1-|
G-2-2-22-22-2-3-3-33-33-3-------------0-0-00-00-0-|
D-0-0-00-00-0-3-3-33-33-3-3-3-33-33-3-2-2-22-22-2-|
A-------------1-1-11-11-1-3-3-33-33-3-3-3-33-33-3-|
E-------------------------1-1-11-11-1-------------|
                              ^
                          i personally like to play an
                          F chord here but its like
                          this in actual song.
chorus
  Bb/A#                   F           C              Bb/A#
e-------------------------------------------------  ---------|
B-------------------------------------1-1-11-11-1-  ---------|
G-3-3-33-33-3-3-3-33-33-3-------------0-0-00-00-0-x2-3-------|
D-3-3-33-33-3-3-3-33-33-3-3-3-33-33-3-2-2-22-22-2-  -3-------|
A-1-1-11-11-1-1-1-11-11-1-3-3-33-33-3-3-3-33-33-3-  -1-------|
E-------------------------1-1-11-11-1-------------  ---------|
[ Tab from: http://www.guitartabs.cc/tabs/s/sum_41/pieces_tab_ver_6.html ]
lead guitar in 2nd verse
  Db/Dminor7              Bb/A#                   F
B-10-10-10-10-10-10-10-10-11-11-11-11-11-11-11-11-10-10-10-10-10-10-10-10-|
G-10-10-10-10-10-10-10-10-10-10-10-10-10-10-10-10-10-10-10-10-10-10-10-10-|
  C
B-8-8-8-8-8-8-8-8-|
G-9-9-9-9-9-9-9-9-|

bridge-rythm
  F        Bb/A#       D    C    Bb/A# F     A
e-------------------  -2222----------------  ------------------|
B-------------------  -3333-1111-----------  ------------------|
G----------33333333-  -2222-0000-3333------  -2222222222222222-|
D-33333333-33333333-x2-0000-2222-3333-3333-x2-2222222222222222-|
A-33333333-11111111-  ------3333-1111-3333-  -0000000000000000-|
E-11111111----------  ----------------1111-  ------------------|

Bridge-lead
  F                       Bb/A#
e-------------------------------------------------|
B-10-10-10-11-10-10-10-11-10-10-10-11-13-13-13-13-|
G-10-10-10-10-10-10-10-10-10-10-10-10-10-10-10-10-|
D-------------------------------------------------|x2
A-------------------------------------------------|
E-------------------------------------------------|

  D           C       Bb/A#   F            A
e---------------------------------------  ------------------|
B-10----10----8---8------8--------------  ------------------|
G----10----10---9---9-10---10-7-5-5-5-5-  -2222222222222222-|
D---------------------------------------x2-2222222222222222-|
A---------------------------------------  -0000000000000000-|
E---------------------------------------  ------------------|

end on
  F
e----
B----
G----
D-3--
A-3--
E-1--
thats it,sum 41 rule
Comments