Sum 41 - Pieces Chords & Tabs

 

Pieces Chords & Tabs

Sum 41 Chords & Tabs

Version: 2 Type: Tab 2 ratings
1 star 2 stars 3 stars 4 stars 5 stars
comments

Pieces Tab

#----------------------------------PLEASE NOTE---------------------------------#
#This file is the author's own work and represents their interpretation of the #
#song. You may only use this file for private study, scholarship, or research. #
#------------------------------------------------------------------------------#

Song Name: Pieces
Band: Sum 41
Tabber: duck-tape
Gt 1: Deryck Whibley
Gt 2: Dave Bacsk
Standard Tuning

Gt 1
Intro                                                      Gt 2
|---1-1-1---1----------------------------0-0-0-0-0-0--|   |--------------------------------------------------|
|---3-3-3---3----------------------------1-1-1-1-1-1--|   |--------------------------------------------------|
|---2-2-2---2--3-3-3-3-3-3---------------0-0-0-0-0-0--|   |--------------------------------------------------|
|-0-0-0-0-0-0--3-3-3-3-3-3--3-3-3-3-3-3--2-2-2-2-2-2--|   |--------------------------------------------------|
|-0-------0----1-1-1-1-1-1--3-3-3-3-3-3--3-3-3-3-3-3--|   |-------------------Rest---------------------------|
|-0-------0-----------------1-1-1-1-1-1---------------|   |--------------------------------------------------|
Figure out the struming for yourself

|----------------------------------------0-0-0-0-0-0--|   |--------5----------------3------------------------|
|----------------------------------------1-1-1-1-1-1--|   |--6---6---6--(x6)--5---5---5--(x2)----------------|
|--3-3-3-3-3-3-3-3-3-3-3-3---------------0-0-0-0-0-0--|   |----5----------------5----------------------------|
|--3-3-3-3-3-3-3-3-3-3-3-3--3-3-3-3-3-3--2-2-2-2-2-2--|   |--------------------------------------------------|
|--1-1-1-1-1-1-1-1-1-1-1-1--3-3-3-3-3-3--3-3-3-3-3-3--|   |--------------------------------------------------|
|---------------------------1-1-1-1-1-1---------------|   |--------------------------------------------------|


|-----------------------------------------------------|   |--1~~~--------------------------------------------|
|-----------------------------------------------------|   |--3~~~--------------------------------------------|
|--3~~~-----------------------------------------------|   |--3~~~--------------------------------------------|   
|--3~~~-----------------------------------------------|   |--------------------------------------------------|
|--1~~~-----------------------------------------------|   |--------------------------------------------------|
|-----------------------------------------------------|   |--------------------------------------------------|


|-----------------------------------------------------|   |--5--------6-------5--------3---------------------|
|-----------------------------------------------------|   |--6--(x8)--6--(x8)-6--(x8)--5--(x8)---------------|
|--7-7-7-7-7-7--3-3-3-3-3-3---------------5-5-5-5-5-5-|   |--------------------------------------------------|
|--7-7-7-7-7-7--3-3-3-3-3-3--3-3-3-3-3-3--5-5-5-5-5-5-|   |--------------------------------------------------|
|--5-5-5-5-5-5--1-1-1-1-1-1--3-3-3-3-3-3--3-3-3-3-3-3-|   |--------------------------------------------------|
|----------------------------1-1-1-1-1-1--------------|   |--------------------------------------------------|


|----------------------------------------0-0-0-0-0-0--|   |--5--------6--------5-------3---------------------|
|----------------------------------------1-1-1-1-1-1--|   |--6--(x8)--6--(x8)--6--(x8)-5--(x8)---------------|
|--3-3-3-3-3-3-3-3-3-3-3-3---------------0-0-0-0-0-0--|   |--5--------5--------5-------5---------------------|
|--3-3-3-3-3-3-3-3-3-3-3-3--3-3-3-3-3-3--2-2-2-2-2-2--|   |--------------------------------------------------|
|--1-1-1-1-1-1-1-1-1-1-1-1--3-3-3-3-3-3--3-3-3-3-3-3--|   |--------------------------------------------------|
|---------------------------1-1-1-1-1-1---------------|   |--------------------------------------------------|
If you believe......

[ Tab from: http://www.guitartabs.cc/tabs/s/sum_41/pieces_tab_ver_2.html ]
|-----------------------------------------------------|   |--1~~~--------------------------------------------|
|-----------------------------------------------------|   |--3~~~--------------------------------------------|
|--3~~~-----------------------------------------------|   |--3~~~--------------------------------------------|   
|--3~~~-----------------------------------------------|   |--------------------------------------------------|
|--1~~~-----------------------------------------------|   |--------------------------------------------------|
|-----------------------------------------------------|   |--------------------------------------------------|



|-----------------------------------------------------|   |--------------------------------------------------|
|-----------------------------------------------------|   |--10-10-10-11-10-10-10-11-10-10-10-11-13-13-13----|
|---------------------------5-5-5-5-5-5--7-7-7-7-7-7--|   |--10-10-10-10-10-10-10-10-10-10-10-10-10-10-10----|   
|--3-3-3-3-3-3-3-3-3-3-3-3--5-5-5-5-5-5--7-7-7-7-7-7--|   |--------------------------------------------------|
|--3-3-3-3-3-3-3-3-3-3-3-3--3-3-3-3-3-3--5-5-5-5-5-5--|   |--------------------------------------------------|
|--1-1-1-1-1-1-1-1-1-1-1-1----------------------------|   |--------------------------------------------------|


|-----------------------------------------------------|   |--------8------8-------5--------5-----------------|
|-----------------------------------------------------|   |--10--------8-------6---------6-------------------|
|--7-7--5-5--3-3--------------------------------------|   |-----10-------9-------7-----5---------------------|   
|--7-7--5-5--3-3--3-3-3-3-----------------------------|   |--------------------------------------------------|
|--5-5--3-3--1-1--3-3-3-3-----------------------------|   |--------------------------------------------------|
|-----------------1-1-1-1-----------------------------|   |--------------------------------------------------|


|-----------------------------------------------------|   |--------------------------------------------------|
|-----------------------------------------------------|   |--10-10-10-11-10-10-10-11-10-10-10-11-10-10-10-11-|
|--2-2-2-2-2-2-2-2-2-2-2-2-2-2-2-2--------------------|   |--------------------------------------------------|   
|--2-2-2-2-2-2-2-2-2-2-2-2-2-2-2-2--------------------|   |--------------------------------------------------|
|--0-0-0-0-0-0-0-0-0-0-0-0-0-0-0-0--------------------|   |--------------------------------------------------|
|-----------------------------------------------------|   |--------------------------------------------------|


|-----------------------------------------------------|   |--5--------6-------5--------3---------------------|
|-----------------------------------------------------|   |--6--(x8)--6--(x8)-6--(x8)--5--(x8)---------------|
|--7-7-7-7-7-7--3-3-3-3-3-3---------------5-5-5-5-5-5-|   |--------------------------------------------------|
|--7-7-7-7-7-7--3-3-3-3-3-3--3-3-3-3-3-3--5-5-5-5-5-5-|   |--------------------------------------------------|
|--5-5-5-5-5-5--1-1-1-1-1-1--3-3-3-3-3-3--3-3-3-3-3-3-|   |--------------------------------------------------|
|----------------------------1-1-1-1-1-1--------------|   |--------------------------------------------------|



|----------------------------------------0-0-0-0-0-0--|   |--5--------6--------5-------3---------------------|
|----------------------------------------1-1-1-1-1-1--|   |--6--(x8)--6--(x8)--6--(x8)-5--(x8)---------------|
|--3-3-3-3-3-3-3-3-3-3-3-3---------------0-0-0-0-0-0--|   |--5--------5--------5-------5---------------------|
|--3-3-3-3-3-3-3-3-3-3-3-3--3-3-3-3-3-3--2-2-2-2-2-2--|   |--------------------------------------------------|
|--1-1-1-1-1-1-1-1-1-1-1-1--3-3-3-3-3-3--3-3-3-3-3-3--|   |--------------------------------------------------|
|---------------------------1-1-1-1-1-1---------------|   |--------------------------------------------------|
If you believe.....



|-----------------------------------------------------|   |--1~~~--------------------------------------------|
|-----------------------------------------------------|   |--3~~~--1~~~--------------------------------------|
|--3~~~-----------------------------------------------|   |--3~~~--2~~~--------------------------------------|   
|--3~~~--3~~~-----------------------------------------|   |--------3~~~--------------------------------------|
|--1~~~--3~~~-----------------------------------------|   |--------------------------------------------------|
|--------1~~~-----------------------------------------|   |--------------------------------------------------|



That's close enough.
Comments