Sum 41 - Pain For Pleasure Chords & Tabs

 

Pain For Pleasure Chords & Tabs

Sum 41 Chords & Tabs

Version: 8 Type: Tab 0 ratings
1 star 2 stars 3 stars 4 stars 5 stars
comments

Pain For Pleasure Tab

   
This is 100% correct! 
Tuning= Eb-Ab-Db-Gb-Bb-Eb  *=Palm muted

Part 1 (6 times)
Eb|---------------------
Bb|---------------------
Gb|---------------------
Db|---------------------
Ab|-7--777--777--777777-
Eb|---------------------
    *  ***  ***  ******
Part 2 (1 time)
Eb|-----------------
Bb|-----------------
Gb|-----------------
Db|-----------------
Ab|-7--777--777--77-
Eb|-----------------
    *  ***  ***  **
Part 3 (1 time)
e|-------------------
B|-------------------
G|-------------------
D|-------------------
A|-77777--777--77777-
E|-------------------
   *****  ***  *****  
(Part 1 (4 times))

Part 4 (1 time)
Eb|---------------------
Bb|---------------------
Gb|---------------------
Db|---------------------
Ab|-9--999--999--999999-
Eb|---------------------
    *  ***  ***  ******
Part 5 (1 time)
Eb|----------------------------------
Bb|----------------------------------
Gb|----------------------------------
Db|----------------------------------
Ab|-10--101010--101010--101010101010-
Eb|----------------------------------
    *   * * *   * * *   * *
Part 6 (1 time)
Eb|----------------------------
Bb|----------------------------
Gb|----------------------------
Db|----------------------------
Ab|-12--121212--121212--121212-
Eb|----------------------------
[ Tab from: http://www.guitartabs.cc/tabs/s/sum_41/pain_for_pleasure_tab_ver_8.html ]
Part 7 (1 time)
Guitar 1
Eb|---------------------------------------------------------
Bb|---------------------------------------------------------
Gb|---------------------------------------------------------
Db|---------------------------------------------------------
Ab|---9\10-9-7~~~-9\10-9-7~~~---9\10-9-7~~~---9\10-9-7~~~---
Eb|---------------------------------------------------------
Guitar 2
Eb|---------------------------------------------------------
Bb|---------------------------------------------------------
Gb|---------------------------------------------------------
Db|-55----------44------------22------------00--------------
Ab|-77----------55------------33------------22--------------
Eb|---------------------------------------------------------

Part 8 (1 time)
Guitar 1               
Eb|---------------------------------------------------------
Bb|---------------------------------------------------------
Gb|---------------------------------------------------------
Db|---7\9-7-------7\9-7-----7\9-7----10--10-9-7-------------
Ab|---------10----------10--------10------------9\10--------
Eb|---------------------------------------------------------
Guitar 2
Eb|---------------------------------------------------------
Bb|---------------------------------------------------------
Gb|---------------------------------------------------------
Db|-00----------02------------------------------------------
Ab|-22----------02------------------------------------------
Eb|---------------------------------------------------------

Part 9 (2 times)
Eb|-7-5-5-----7-5-5-----7-5-5------7-5-5----
Bb|----8-8-7-----8-8-5-----8-8-4--4---8-7-8-
Gb|-----------------------------------------
Db|-----------------------------------------
Ab|-----------------------------------------
Eb|-----------------------------------------
There is more to this but I don't feel like puting it on here right now. If you want the 
rest of it or any other Sum 41 song E-mail me.
Comments