Sum 41 - Pain For Pleasure Chords & Tabs

 

Pain For Pleasure Chords & Tabs

Sum 41 Chords & Tabs

Version: 7 Type: Tab 0 ratings
1 star 2 stars 3 stars 4 stars 5 stars
comments

Pain For Pleasure Tab

intro  play un till you get bored
e:---------------------------------------
B:---------------------------------------
G:---------------------------------------
D:-1-11-1-11-1-11-1111-1-----------------
A:---------------------------------------
E:---------------------------------------
 P.M. …………………………………………………

At the end play this
e:---------------------------------------
B:---------------------------------------
G:---------------------------------------
D:-111111-333333-4444-6666---------------
A:---------------------------------------
E:---------------------------------------
P.M. …………………………………………………………

e:-----------------------------------------------------
B:-44--------------------------------------------------
G:-33-----------66-----------44-----------33-----------
D:-11--4-3-1----66--4-3-1----44----4-3-1--33---4-3-1---
A:--------------44-----------22-----------11-----------
E:-----------------------------------------------------


e:-----------------------------------------------------
B:-44--------------------------------------------------
G:-33----3-1----66----3-1----44----3-1----33----3-1----
D:-11--------4--66--------4--44--------4--33--------4--
A:--------------44-----------22-----------11-----------
E:-----------------------------------------------------


bridge into verse 2x
e:-7-5---5------7-5---5------7-5---5------7-5---5---5--
B:-----7---7-6------7---7--------7---7--------7---7----
G:------------------------8------------7---------------
D:-----------------------------------------------------
A:-----------------------------------------------------
E:-----------------------------------------------------
[ Tab from: http://www.guitartabs.cc/tabs/s/sum_41/pain_for_pleasure_tab_ver_7.html ]
Then this 2x
e:-----------------------------------------------------
B:-11-9----9--------11-9----9-------11-9----9----------
G:------11---11-10-------11---11-8-------11---11-7-----
D:-----------------------------------------------------
A:-----------------------------------------------------
E:-----------------------------------------------------

e:-----------------
B:-11-9----9----9--
G:------11---11----
D:-----------------
A:-----------------
E:-----------------

verse the seas have…
e:----------------------------------------------------------
B:----------------------------------------------------------
G:-8-xxxxxxx-8-6-xxxxxxx-6-4-xxxxxxx-4-xxxxxxx-4-3-xxxxxxx--
D:-8-xxxxxxx-8-6-xxxxxxx-6-4-xxxxxxx-4-xxxxxxx-4-3-xxxxxxx--
A:-6-xxxxxxx-6-4-xxxxxxx-4-2-xxxxxxx-2-xxxxxxx-2-1-xxxxxxx--
E:----------------------------------------------------------


Chorus 1 pain…… hes the hunter you’re the game
e:-----------------------------------
B:-----------------------------------
G:-8-8-12-8--33333-4444-666-----------
D:-8-8-12-8--33333-4444-666-----------
A:-6-6-10-6--11111-2222-444-----------
E:-----------------------------------

pain…… Satan is his name…
e:-------------------------------------------
B:-------------------------------------------
G:-8-8-12-8--33333-4444-666-444-666-444-6666--
D:-8-8-12-8--33333-4444-666-444-666-444-6666--
A:-6-6-10-6--11111-2222-444-222-444-222-4444--
E:-------------------------------------------

ending 
e:---------------------
B:---------------------
G:-8-6-8---------------
D:-8-6-8---------------
A:-6-4-6---------------
E:---------------------

I know this probably isn’t right but you judge for your self, some chords i'm not sure 
bout so put them it the comments if you know
Comments