Sum 41 - Pain For Pleasure Chords & Tabs

 

Pain For Pleasure Chords & Tabs

Sum 41 Chords & Tabs

Version: 15 Type: Tab 0 ratings
1 star 2 stars 3 stars 4 stars 5 stars
comments

Pain For Pleasure Tab

   
-------------------------------------------------------------------------------
			  PAIN FOR PLEASURE - Sum 41
-------------------------------------------------------------------------------

********************
*** 100% CORRECT ***
********************

Tuning: Standard

. = Palm Mute
h = Hammer-On
~ = Vibrato
/ = Slide up
\ = Slide down


*** 0:00-0:32 ***

>Guitar 1 [0:00-0:32]
e|------------------|------------------|------------------|------------------|
B|------------------|------------------|------------------|------------------|
G|------------------|------------------|------------------|------------------|
D|------------------|------------------|------------------|------------------|
A|-6-666-666-666666-|-6-666-666-666666-|-6-666-666-666666-|-6-666-666-666666-|
E|------------------|------------------|------------------|-------------- X4 |
   . ... ... ......   . ... ... ......   . ... ... ......   . ... ... ......

e|------------------|------------------|------------------|------------------|
B|------------------|------------------|------------------|------------------|
G|------------------|------------------|------------------|------------------|
D|------------------|------------------|------------------|------------------|
A|-6-666-666-666666-|-6-666-666-666666-|-6-666-666-666666-|-6-66-6-66-6-66-6-|
E|------------------|------------------|------------------|------------------|
   . ... ... ......   . ... ... ......   . ... ... ......     ..   ..   .. 

>Guitar 2 [0:00-0:32]
e|------------------|------------------|------------------|------------------|
B|------------------|------------------|------------------|------------------|
G|------------------|------------------|------------------|------------------|
D|------------------|------------------|------------------|------------------|
A|-6-666-666-666666-|-6-666-666-666666-|-6-666-666-666666-|-6-666-666-666666-|
E|------------------|------------------|------------------|-------------- X4 |
   . ... ... ......   . ... ... ......   . ... ... ......   . ... ... ......

e|------------------|------------------|------------------|------------------|
B|------------------|------------------|------------------|------------------|
G|------------------|------------------|------------------|------------------|
D|------------------|------------------|------------------|-6-66-6-66-6-66-6-|
A|-6-666-666-666666-|-8-888-888-888888-|-9-999-999-999999-|------------------|
E|------------------|------------------|------------------|------------------|
   . ... ... ......   . ... ... ......   . ... ... ......     ..   ..   .. 

*** 0:34-0:46 ***

>Guitar 1 [0:34-0:40]
e|------------------|------------------|------------------|------------------|
B|------------------|------------------|------------------|------------------|
G|-8-8--------------|-6-6--------------|------------------|------------------|
D|-8-8--------------|-6-6--------------|-9-9--------------|-8-8--------------|
A|-6-6--------------|-4-4--------------|-9-9--------------|-8-8--------------|
E|------------------|------------------|-7-7--------------|-6-6--------------|

>Guitar 2 [0:34-0:40]
e|------------------|------------------|------------------|------------------|
B|------------------|------------------|------------------|------------------|
G|-8-8--------------|-6-6--------------|------------------|------------------|
D|-8-8--------------|-6-6--------------|-9-9--------------|-8-8--------------|
A|-6-6---8h9-8-6----|-4-4---8/9-8-6----|-9-9---8h9-8-6----|-8-8---8h9-8-6----|
E|------------------|------------------|-7-7--------------|-6-6--------------|
               ~                  ~                  ~                  ~

*** 0:40-0:46 ***

>Guitar 1 [0:40-0:46]
e|------------------|------------------|------------------|------------------|
B|------------------|------------------|------------------|------------------|
G|-8-8--------------|-6-6--------------|------------------|-4----------------|
D|-8-8---6h8-6-4----|-6-6---6/8-6-4----|-9-9---6h8-6-4----|-----8---6---4----|
A|-6-6--------------|-4-4--------------|-9-9--------------|------------------|
E|------------------|------------------|-7-7--------------|------------------|
               ~                  ~                         ~     

>Guitar 2 [0:40-0:46]
e|------------------|------------------|------------------|------------------|
B|------------------|------------------|------------------|------------------|
G|-8-8--------------|-6-6--------------|------------------|------------------|
D|-8-8--------------|-6-6--------------|-9-9--------------|-6----------------|
A|-6-6---8h9-8-6----|-4-4---8/9-8-6----|-9-9---8h9-8-6----|-----9---8---6----|
E|------------------|------------------|-7-7--------------|------------------|
               ~                  ~                  ~      ~

*** 0:46-0:58 ***
[ Tab from: http://www.guitartabs.cc/tabs/s/sum_41/pain_for_pleasure_tab_ver_15.html ]
>Guitar 1 [0:46-0:58] Skip first + slide last note the second time
e|---6-4---4--------|-6-4----4---------|--6-4----4--------|-6-4---4----------|
B|-7-----7---7-6----|------7---7-4-----|------7----7-3----|-----7---3-4\-----|
G|------------------|------------------|------------------|------------------|
D|------------------|------------------|------------------|------------------|
A|------------------|------------------|------------------|------------------|
E|------------------|------------------|------------------|-------------- X2 |
                                                                      
>Guitar 2 [0:46-0:58]  Skip first + slide last note the second time
e|------------------|------------------|------------------|------------------|
B|-4-7-6-4-6-4------|-7-6-4-6-4--------|-7-6-4-6-4--------|-7-6-4-6-3-4\-----|
G|-------------6----|-----------4------|-----------3------|------------------|
D|------------------|------------------|------------------|------------------|
A|------------------|------------------|------------------|------------------|
E|------------------|------------------|------------------|-------------- X2 |

>Guitar 3 [0:46-0:58]
e|------------------|------------------|------------------|------------------|
B|------------------|------------------|------------------|------------------|
G|-8----------------|-6----------------|-4----------------|-3----------------|
D|-8----------------|-6----------------|-4----------------|-3----------------|
A|-6-666-666-666666-|-4-444-444-444444-|-2-222-222-222222-|-1-111-111-111111-|
E|------------------|------------------|------------------|-------------- X2 |
     ... ... ......     ... ... ......     ... ... ......     ... ... ......

*** 0:58-1:10 ***

>Guitar 1 [0:58-1:10]
e|------------------|------------------|------------------|------------------|
B|------------------|------------------|------------------|------------------|
G|------------------|------------------|------------------|------------------|
D|-8-888-888-888888-|-6-666-666-666666-|-4-444-444-444444-|-3-333-333-333333-|
A|-6-666-666-666666-|-4-444-444-444444-|-2-222-222-222222-|-1-111-111-111111-|
E|------------------|------------------|------------------|-------------- X2 |
   . ... ... ......   . ... ... ......   . ... ... ......   . ... ... ......

>Guitar 2 [0:58-1:10]
e|------------------|------------------|------------------|------------------|
B|------------------|------------------|------------------|------------------|
G|-8-------------8--|-6--------------6-|-4--------------4-|-3----------------|
D|-x-------------x--|-x--------------x-|-x--------------x-|-x----------------|
A|-6-------------6--|-4--------------4-|-2--------------2-|-1----------------|
E|------------------|------------------|------------------|-------------- X2 |

*** 1:10-1:22 ***

>Guitar 1 [1:10-1:22]
e|------------------|------------------|------------------|------------------|
B|------------------|------------------|------------------|------------------|
G|------------------|------------------|------------------|------------------|
D|-8-888-888-888888-|-6-666-666-666666-|-4-444-444-444444-|-3-333-333-333333-|
A|-6-666-666-666666-|-4-444-444-444444-|-2-222-222-222222-|-1-111-111-111111-|
E|------------------|------------------|------------------|-------------- X2 |
   . ... ... ......   . ... ... ......   . ... ... ......   . ... ... ......

>Guitar 2 [1:10-1:22] Let ring all notes
e|------------------|------------------|------------------|------------------|
B|------------------|------------------|------------------|------------------|
G|-8-------------8--|-10------------10-|-11------------11-|-13---------------|
D|-x-------------x--|-x--------------x-|-x--------------x-|-x----------------|
A|-6-------------6--|-8--------------8-|-9--------------9-|-11---------------|
E|------------------|------------------|------------------|-------------- X2 |

*** 1:22-1:34 ***

>Guitar 1 [1:22-1:34]
e|------------------|------------------|------------------|------------------|
B|------------------|------------------|------------------|------------------|
G|-11---------------|-15-11------------|-11---------------|-8--88---10--1010-|
D|------------------|------------------|------------------|------------------|
A|------------------|------------------|------------------|------------------|
E|------------------|------------------|------------------|-------------- X2 |

>Guitar 2 [1:22-1:34]
e|------------------|------------------|------------------|------------------|
B|------------------|------------------|------------------|------------------|
G|-8----------------|-11-8-------------|-8----------------|-4--44---6--66----|
D|------------------|------------------|------------------|------------------|
A|------------------|------------------|------------------|------------------|
E|------------------|------------------|------------------|-------------- X2 |

>Guitar 3 [1:22-1:34]
e|------------------|------------------|------------------|------------------|
B|------------------|------------------|------------------|------------------|
G|-8----------------|-11-8-------------|-8----------------|-4--44---6--66----|
D|-8----------------|-11-8-------------|-8----------------|-4--44---6--66----|
A|-6----------------|-9--6-------------|-6----------------|-2--22---4--44----|
E|------------------|------------------|------------------|-------------- X2 |

*** 1:34-1:40 ***

>Guitar 1 [1:34-1:40]
e|------------------|------------------|------------------|------------------|
B|------------------|------------------|------------------|------------------|
G|-8--88---10--1010-|-8--88---10--1010-|-11---------------|-8-6-8-\----------|
D|------------------|------------------|------------------|------------------|
A|------------------|------------------|------------------|------------------|
E|------------------|------------------|------------------|------------------|

>Guitar 2 [1:34-1:40]
e|------------------|------------------|------------------|------------------|
B|------------------|------------------|------------------|------------------|
G|-4--44--6--66-----|-4--44---6--66----|-8----------------|-8-6-8-\----------|
D|------------------|------------------|------------------|------------------|
A|------------------|------------------|------------------|------------------|
E|------------------|------------------|------------------|------------------|

>Guitar 3 [1:34-1:40]
e|------------------|------------------|------------------|------------------|
B|------------------|------------------|------------------|------------------|
G|-4--44---6--66----|-4--44---6--66----|-8----------------|-8-6-8-\----------|
D|-4--44---6--66----|-4--44---6--66----|-8----------------|-8-6-8-\----------|
A|-2--22---4--44----|-2--22---4--44----|-6----------------|-6-4-6-\----------|
E|------------------|------------------|------------------|------------------|


==============================================================================
Comments