Sum 41 - Pain For Pleasure Chords & Tabs

 

Pain For Pleasure Chords & Tabs

Sum 41 Chords & Tabs

Version: 13 Type: Tab 0 ratings
1 star 2 stars 3 stars 4 stars 5 stars
comments

Pain For Pleasure Tab

   
#----------------------------------PLEASE NOTE---------------------------------#
#This file is the author's own work and represents their interpretation of the #
#song. You may only use this file for private study, scholarship, or research. #
#------------------------------------------------------------------------------##


Gtr I (D# G# C# F# A# D#) - 'Untitled'
Gtr II (D# G# C# F# A# D#) - 'Untitled'
Gtr III (D# G# C# F# A# D#) - 'Untitled'
Gtr IV (D# G# C# F# A# D#) - 'Untitled'

  Q=160
  E5
 4/4
  Gtrs I, II
  PM--------------------------------------------------------|
  E  S S E  S S E  S S S S S S   E  S S E  S S E  S S S S S S
|------------------------------|-------------------------------|
|------------------------------|-------------------------------|
|------------------------------|-------------------------------|
|------------------------------|-------------------------------|
|-7--7-7-7--7-7-7--7-7-7-7-7-7-|-7--7-7-7--7-7-7--7-7-7-7-7-7--|
|------------------------------|-------------------------------|


  PM-----------------------------------------------------------
  E  S S E  S S E  S S S S S S   E  S S E  S S E  S S S S S S
|------------------------------|------------------------------|
|------------------------------|------------------------------|
|------------------------------|------------------------------|
|------------------------------|------------------------------|
|-7--7-7-7--7-7-7--7-7-7-7-7-7-|-7--7-7-7--7-7-7--7-7-7-7-7-7-|
|------------------------------|------------------------------|


 -----------------------------|
   E  S S E  S S E  S S S S S S
|----------------------------------|
|----------------------------------|
|----------------------------------|
|----------------------------------|
|--7--7-7-7--7-7-7--7-7-7-7-7-7----|
|----------------------------------|


                                3/4
  PM---------------------------------------------------
  E  S S E  S S E  S S S S S S   E  S S E  S S E  S S
|------------------------------|----------------------|
|------------------------------|----------------------|
|------------------------------|----------------------|
|------------------------------|----------------------|
|-7--7-7-7--7-7-7--7-7-7-7-7-7-|-7--7-7-7--7-7-7--7-7-|
|------------------------------|----------------------|


 4/4
 -----------------------------|
  S S S S E  S S E  S S S S S S
|--------------------------------|
|--------------------------------|
|--------------------------------|
|--------------------------------|
|-7-7-7-7-7--7-7-7--7-7-7-7-7-7--|
|--------------------------------|


  PM----------------------------
  E  S S E  S S E  S S S S S S
|------------------------------|
|------------------------------|
|------------------------------|
|------------------------------|
|-7--7-7-7--7-7-7--7-7-7-7-7-7-|
|------------------------------|


 -----------------------------------------------------------|
  E  S S E  S S E  S S S S S S   E  S S E  S S E  S S S S S S
|------------------------------|------------------------------|
|------------------------------|------------------------------|
|------------------------------|------------------------------|
|------------------------------|------------------------------|
|-7--7-7-7--7-7-7--7-7-7-7-7-7-|-7--7-7-7--7-7-7--7-7-7-7-7-7-|
|------------------------------|------------------------------|


    E5                             D5
    PM-----------------------------------------------------------
    E  S S E  S S E  S S S S S S   E  S S E  S S E  S S S S S S
||-------------------------------|------------------------------|
||o------------------------------|------------------------------|
||-------------------------------|------------------------------|
||-------------------------------|------------------------------|
||o-7--7-7-7--7-7-7--7-7-7-7-7-7-|-7--7-7-7--7-7-7--7-7-7-7-7-7-|
||-------------------------------|------------------------------|


  C5                             B5                         D5
 -----------------------------------------------------------|
  E  S S E  S S E  S S S S S S   E  S S E  S S E  S S S S S S
|------------------------------|----------------------------------||
|------------------------------|---------------------------------o||
|------------------------------|----------------------------------||
|------------------------------|----------------------------------||
|-7--7-7-7--7-7-7--7-7-7-7-7-7-|-7--7-7-7--7-7-7--7-7-7-7-7-7----o||
|------------------------------|----------------------------------||


  Gtr I
  PM-----------------------------------------------------------
  E  S S E  S S E  S S S S S S   E  S S E  S S E  S S S S S S
|------------------------------|------------------------------|
|------------------------------|------------------------------|
|------------------------------|------------------------------|
|------------------------------|------------------------------|
|-7--7-7-7--7-7-7--7-7-7-7-7-7-|-9--9-9-9--9-9-9--9-9-9-9-9-9-|
|------------------------------|------------------------------|
|
| Gtr II
| PM-----------------------------------------------------------
| E  S S E  S S E  S S S S S S   E  S S E  S S E  S S S S S S
|------------------------------|------------------------------|
|------------------------------|------------------------------|
|------------------------------|------------------------------|
|------------------------------|------------------------------|
|-7--7-7-7--7-7-7--7-7-7-7-7-7-|-7--7-7-7--7-7-7--7-7-7-7-7-7-|
|------------------------------|------------------------------|


 ----------------------------|
   E   S  S  E   S  S  E   S  S  S  S  S  S    E   S  S  E   S  S  E   S  S  Q
|-------------------------------------------|-----------------------------------|
|-------------------------------------------|-----------------------------------|
|-------------------------------------------|-----------------------------------|
|-------------------------------------------|-----------------------------------|
|-10--10-10-10--10-10-10--10-10-10-10-10-10-|-12--12-12-12--12-12-12--12-12-12\-|
|-------------------------------------------|-----------------------------------|
|
|----------------------------------------|
|  E   S  S  E   S  S  E   S  S  S  S  S  S    E   S  S  E   S  S  E   S  S  Q
|-------------------------------------------|-----------------------------------|
|-------------------------------------------|-----------------------------------|
|-------------------------------------------|-----------------------------------|
|-------------------------------------------|-----------------------------------|
|--7---7--7--7---7--7--7---7--7--7--7--7--7-|--7---7--7--7---7--7--7---7--7--7\-|
|-------------------------------------------|-----------------------------------|


  Em                     D
  Gtr III
                    ~                      ~
  Q   E a  E  +E  E Q    Q   E a  E  +E  E Q
|----------------------|----------------------|
|----------------------|----------------------|
|----------------------|----------------------|
|----------------------|----------------------|
|-------9h10-(10)-9-7--|-------9h10-(10)-9-7--|
|----------------------|----------------------|
|
| Gtrs I, II
| E E Q    H             E E Q    H
|----------------------|----------------------|
|----------------------|----------------------|
|----------------------|----------------------|
|-5-5------------------|-4-4------------------|
|-7-7------------------|-5-5------------------|
|----------------------|----------------------|


  C                      Bm
                    ~                      ~
  Q   E a  E  +E  E Q    Q   E a  E  +E  E Q
|----------------------|----------------------|
|----------------------|----------------------|
|----------------------|----------------------|
|----------------------|----------------------|
|-------9h10-(10)-9-7--|-------9h10-(10)-9-7--|
|----------------------|----------------------|
|
| E E Q    H             E E Q    H
|----------------------|----------------------|
|----------------------|----------------------|
|----------------------|----------------------|
|-2-2------------------|-0-0------------------|
|-3-3------------------|-2-2------------------|
|----------------------|----------------------|


  Em                    D
  Gtr IV
                   ~~                    ~~
  Q   E a E +E  E  Q    Q   E a E +E  E  Q
|---------------------|---------------------|
|---------------------|---------------------|
|---------------------|---------------------|
|-------7s9-(9)-7-----|-------7s9-(9)-7-----|
|-----------------10--|-----------------10--|
|---------------------|---------------------|
|
| Gtr III
| E E Q   H             E E Q   H
|---------------------|---------------------|
|---------------------|---------------------|
|---------------------|---------------------|
|-0-0-----------------|-0-0-----------------|
|-2-2-----------------|-2-2-----------------|
|---------------------|---------------------|
|
| Gtrs I, II
| E E Q   H             E E Q   H
|---------------------|---------------------|
|---------------------|---------------------|
|---------------------|---------------------|
|-5-5-----------------|-4-4-----------------|
|-7-7-----------------|-5-5-----------------|
|---------------------|---------------------|


  C                         Bm
  Q   E a  E  +E  E  E  E    +E   E Q  Q  E  E
|-------------------------|---------------------|
|-------------------------|---------------------|
|-------------------------|---------------------|
|-------7s=9--(9)-7----10-|-(10)-10-9--7--------|
|-------------------10----|---------------9h10--|
|-------------------------|---------------------|
|
| Q   E a  E  +E  E  E  E    +E   E Q  Q  E  E
|-------------------------|---------------------|
|-------------------------|---------------------|
|-------------------------|---------------------|
|-----------------------7-|--(7)--7-5--4--------|
|-------9h10-(10)-9--7----|---------------5h=7--|
|-------------------------|---------------------|
|
| E E Q    H                  E   E Q  H
|-------------------------|---------------------|
|-------------------------|---------------------|
|-------------------------|---------------------|
|-2-2---------------------|---0---0-------------|
|-3-3---------------------|---2---2-------------|
|-------------------------|---------------------|


  Em                            D
  Gtr IV
   +Q    E E  E E   E E         +Q      E E   E E   E E
|--------7-5----5-------------|---------7-5-----5-----------|
|-------------8-----8-7-------|-(7)-----------8-----8-5-----|
|-----------------------------|-----------------------------|
|-----------------------------|-----------------------------|
|-(10)------------------------|-----------------------------|
|-----------------------------|-----------------------------|
|
| Gtr III
|  +Q    E E  E E   E E         +Q      E E   E E   E E
|--------3-2--0-2---0---------|---------3-2---0-2---0-------|
|---------------------3-------|-(3)-------------------1-----|
|-----------------------------|-----------------------------|
|-----------------------------|-----------------------------|
|--(7)------------------------|-----------------------------|
|-----------------------------|-----------------------------|
|
| Gtrs I, II
|   PM-------------------------------------------------------
|   E  S S E  S S E S S E S S    E  S S E   S S E S S E S S
|-----------------------------|-----------------------------|
|-----------------------------|-----------------------------|
|-----------------------------|-----------------------------|
|---5--5-5-5--5-5-5-5-5-5-5-5-|--4--4-4-4---4-4-4-4-4-4-4-4-|
|---7--7-7-7--7-7-7-7-7-7-7-7-|--5--5-5-5---5-5-5-5-5-5-5-5-|
|-----------------------------|-----------------------------|


  C                             Bm
  +Q      E E   E E   E E       +E  E   E E   E E   E E
|---------7-5-----5-----------|---------7-5-----5--------------|
|-(5)-----------8-----8-4-----|-(4)-4---------8-----7-8--------|
|-----------------------------|--------------------------------|
|-----------------------------|--------------------------------|
|-----------------------------|--------------------------------|
|-----------------------------|--------------------------------|
|
| +Q      E E   E E   E E       +E  E   E E   E E   E E
|---------3-2---0-2---0-------|---------3-2---0-2-----0--------|
|-(1)-------------------0-----|-(0)-0---------------4----------|
|-----------------------------|--------------------------------|
|-----------------------------|--------------------------------|
|-----------------------------|--------------------------------|
|-----------------------------|--------------------------------|
|
|---------------------------------------------------------|
|  E  S S E   S S E S S E S S    E  S S E   S S E S S E S S
|-----------------------------|--------------------------------|
|-----------------------------|--------------------------------|
|-----------------------------|--------------------------------|
|--2--2-2-2---2-2-2-2-2-2-2-2-|--0--0-0-0---0-0-0-0-0-0--------|
|--3--3-3-3---3-3-3-3-3-3-3-3-|--2--2-2-2---2-2-2-2-2-2-7-7----|
|-----------------------------|--------------------------------|

[ Tab from: http://www.guitartabs.cc/tabs/s/sum_41/pain_for_pleasure_tab_ver_13.html ]
  Em                          D
  Gtr IV
   E  E   E E   E E   E E     +E  E   E E   E E   E E
|---------7-5-----5---------|---------7-5-----5---------|
|-(8)-8---------8-----8-7---|-(7)-7---------8-----8-5---|
|---------------------------|---------------------------|
|---------------------------|---------------------------|
|---------------------------|---------------------------|
|---------------------------|---------------------------|
|
| Gtr III
|  E  E   E E   E E   E E     +Q      E E   E E   E E
|-(0)-0---3-2---0-2---0-----|---------3-2---0-2---0-----|
|-----------------------3---|-(3)-------------------1---|
|---------------------------|---------------------------|
|---------------------------|---------------------------|
|---------------------------|---------------------------|
|---------------------------|---------------------------|
|
|  PM----------------------------------------------------
|  E  S S E S S E S S E S S    E  S S E S S E S S E S S
|---------------------------|---------------------------|
|---------------------------|---------------------------|
|---------------------------|---------------------------|
|--5--5-5-5-5-5-5-5-5-5-5-5-|--4--4-4-4-4-4-4-4-4-4-4-4-|
|--7--7-7-7-7-7-7-7-7-7-7-7-|--5--5-5-5-5-5-5-5-5-5-5-5-|
|---------------------------|---------------------------|


  C                           Bm
  +E  E   E E   E E   E E     +E  E   E E   E E   E E
|---------7-5-----5---------|---------7-5-----5------------||
|-(5)-5---------8-----8-4---|-(4)-4---------8-----7-8------||
|---------------------------|------------------------------||
|---------------------------|------------------------------||
|---------------------------|------------------------------||
|---------------------------|------------------------------||
|
| +Q      E E   E E   E E     +E  E   E E   E E   E E
|---------3-2---0-2---0-----|---------3-2---0-2------------||
|-(1)-------------------0---|-(0)-0---------------4--------||
|---------------------------|-----------------------0------||
|---------------------------|------------------------------||
|---------------------------|------------------------------||
|---------------------------|------------------------------||
|
|-----------------------------------------------------|
|  E  S S E S S E S S E S S    E  S S E S S E S S E S S
|---------------------------|------------------------------||
|---------------------------|------------------------------||
|---------------------------|------------------------------||
|--2--2-2-2-2-2-2-2-2-2-2-2-|--0--0-0-0-0-0-0-0-0-0--------||
|--3--3-3-3-3-3-3-3-3-3-3-3-|--2--2-2-2-2-2-2-2-2-2-7-7----||
|---------------------------|------------------------------||


   Verse
    Em                           D
    Gtr III
     Q       Q       Q   Q       Q     Q       Q   Q
||-----------------------------|-------------------------|
||o-(8)\-----------------------|-------------------------|
||-----------------------------|-------------------------|
||---5-------------------5-----|-4-----------------4-----|
||o--7-------------------7-----|-5-----------------5-----|
||-----------------------------|-------------------------|
|
|   Gtrs I, II
|    PM---------------------------------------------------
|    E   S S E S S E S S E S S   E S S E S S E S S E S S
||-----------------------------|-------------------------|
||o----------------------------|-------------------------|
||-----------------------------|-------------------------|
||---5---5-5-5-5-5-5-5-5-5-5-5-|-4-4-4-4-4-4-4-4-4-4-4-4-|
||o--7---7-7-7-7-7-7-7-7-7-7-7-|-5-5-5-5-5-5-5-5-5-5-5-5-|
||-----------------------------|-------------------------|


  C                         Bm
  Q     Q       Q     Q     Q   Q   H
|-------------------------|----------------------------||
|-------------------------|---------------------------o||
|-------------------------|----------------------------||
|-2-------------------2---|-2--------------------------||
|-3-------------------3---|-0-------------------------o||
|-------------------------|----------------------------||
|
|-------------------------------------------------|
| E S S E S S E S S E S S   E S S E S S E S S E S S
|-------------------------|----------------------------||
|-------------------------|---------------------------o||
|-------------------------|----------------------------||
|-2-2-2-2-2-2-2-2-2-2-2-2-|-0-0-0-0-0-0-0-0-0-0--------||
|-3-3-3-3-3-3-3-3-3-3-3-3-|-2-2-2-2-2-2-2-2-2-2-7-7---o||
|-------------------------|----------------------------||


  Em                         D
    H.             E   E     H.                   Q
|--------------------------|--------------------------|
|--------------------------|--------------------------|
|--------------------------|--------------------------|
|--------------------------|--------------------------|
|---7--------------7s==9---|-9--------------------9---|
|--------------------------|--------------------------|
|
| Gtrs I, II
| PM---------------------------------------------------
| E S  S E S S E S S E S S   E  S S E S S E S S E S S
|--------------------------|--------------------------|
|--------------------------|--------------------------|
|--------------------------|--------------------------|
|-5-5--5-5-5-5-5-5-5-5-5-5-|-4--4-4-4-4-4-4-4-4-4-4-4-|
|-7-7--7-7-7-7-7-7-7-7-7-7-|-5--5-5-5-5-5-5-5-5-5-5-5-|
|--------------------------|--------------------------|


  C                            Bm
   H.                  Q        H.                         Q
|----------------------------|---------------------------------|
|----------------------------|---------------------------------|
|----------------------------|---------------------------------|
|----------------------------|---------------------------------|
|-10------------------10S====|=14-------------------------14\--|
|----------------------------|---------------------------------|
|
|------------------------------------------------------|
|  E  S S E S S E S S  E S S    E  S S E S S E S S E S S
|----------------------------|---------------------------------|
|----------------------------|---------------------------------|
|----------------------------|---------------------------------|
|--2--2-2-2-2-2-2-2-2--2-2-2-|--0--0-0-0-0-0-0-0-0-0-----------|
|--3--3-3-3-3-3-3-3-3--3-3-3-|--2--2-2-2-2-2-2-2-2-2-7-7-------|
|----------------------------|---------------------------------|


  Em                              D
  H.                      Q        H.                     E   E
|-------------------------------|---------------------------------|
|-------------------------------|---------------------------------|
|-9-----------------------9-----|-11---------------------11s=12---|
|-x-----------------------x-----|--x----------------------x-------|
|-7-----------------------7-----|--9----------------------9s=10---|
|-------------------------------|---------------------------------|
|
| PM---------------------------------------------------------------
| E   S S E  S S E  S S E   S S    E   S S E  S S E  S S  E   S S
|-------------------------------|---------------------------------|
|-------------------------------|---------------------------------|
|-------------------------------|---------------------------------|
|-5---5-5-5--5-5-5--5-5-5---5-5-|--4---4-4-4--4-4-4--4-4--4---4-4-|
|-7---7-7-7--7-7-7--7-7-7---7-7-|--5---5-5-5--5-5-5--5-5--5---5-5-|
|-------------------------------|---------------------------------|


  C
   H.                        Q
|--------------------------------|
|--------------------------------|
|-12------------------------12s==|
|--x-------------------------x---|
|-10------------------------10s==|
|--------------------------------|
|
|------------------------------|
|  E   S S E  S S E  S S E   S S
|--------------------------------|
|--------------------------------|
|--------------------------------|
|--2---2-2-2--2-2-2--2-2-2---2-2-|
|--3---3-3-3--3-3-3--3-3-3---3-3-|
|--------------------------------|


  Bm                           Em
  Gtr III
   H.                     E    E    +H     +Q.    E
|--------------------------------||------------------|
|------------------------------8-||-(8)----(8)---12--|
|-16--------------------(16)\--9-||-(9)----(9)---12--|
|--------------------------------||------------------|
|-14--------------------(14)\----||------------------|
|--------------------------------||------------------|
|
| Gtrs I, II
|  PM-------------------|
|  E   S S E  S S E  E    E    E    +H     +Q.    E
|--------------------------------||------------------|
|--------------------------------||------------------|
|--------------------------------||------------------|
|--0---0-0-0--0-0-0--0----0------||------------------|
|--2---2-2-2--2-2-2--2----2----2-||-(2)----(2)----5--|
|------------------------------0-||-(0)----(0)-------|


                                     C
   E     Q.      +H       H    +Q.   E
|-----------------------|--------------|
|-12s====8-------(8)----|-8----(8)---5-|
|-12s====9-------(9)----|-9----(9)---5-|
|-----------------------|--------------|
|-----------------------|--------------|
|-----------------------|--------------|
|
| +E  Q.     +H           H    +Q.   E
|-----------------------|--------------|
|-----------------------|--------------|
|-----------------------|--------------|
|-----------------------|------------5-|
|-(5)-2------(2)--------|-2----(2)---3-|
|-----------------------|-0----(0)-----|


   E  E E E +E  E Q     H    +Q.    E
|---------------------|---------------|
|-(5)-5-5-7-(7)-7-7---|-8----(8)---12-|
|-(5)-5-5-7-(7)-7-7---|-9----(9)---12-|
|---------------------|---------------|
|---------------------|---------------|
|---------------------|---------------|
|
|  E  E E E +E  E Q     H    +Q.    E
|---------------------|---------------|
|---------------------|---------------|
|---------------------|---------------|
|-(5)-5-5-7-(7)-7-7\--|---------------|
|-(3)-3-3-5-(5)-5-5\--|-2----(2)----5-|
|---------------------|-0----(0)------|


    E     Q.      +H       H.          E  E
|------------------------|------------------|
|-(12)s===8-------(8)----|-8----------(8)S5-|
|-(12)s===9-------(9)----|-9----------(9)S5-|
|------------------------|------------------|
|------------------------|------------------|
|------------------------|------------------|
|
|  +E  Q.     +H           H     +Q.      E
|------------------------|------------------|
|------------------------|------------------|
|------------------------|------------------|
|------------------------|----------------5-|
|--(5)-2------(2)--------|-2-----(2)------3-|
|------------------------|-0-----(0)--------|


          D         C           D         C
   E  E E E +E  E E E   +E  E E E +E  E E E
|---------------------|---------------------|
|-(5)-5-5-7-(7)-7-7-5-|-(5)-5-7-7-(7)-7-7-5-|
|-(5)-5-5-7-(7)-7-7-5-|-(5)-5-7-7-(7)-7-7-5-|
|---------------------|---------------------|
|---------------------|---------------------|
|---------------------|---------------------|
|
|  E  E E E +E  E E E   +E  E E E +E  E E E
|---------------------|---------------------|
|---------------------|---------------------|
|---------------------|---------------------|
|-(5)-5-5-7-(7)-7-7-5-|-(5)-5-5-7-(7)-7-7-5-|
|-(3)-3-3-5-(5)-5-5-3-|-(3)-3-3-5-(5)-5-5-3-|
|---------------------|---------------------|


          D             Em         E5    D5        E5
  +E  E E E +E  E E E   W           E.    S   +E    E    H
|---------------------|----------|-12----10--(10)--12--(12)\--*|
|-(5)-5-5-7-(7)-7-7s8-|-8--------|----------------------------*|
|-(5)-5-5-7-(7)-7-7s9-|-9--------|--9-----7---(7)---9---(9)\--*|
|---------------------|----------|----------------------------*|
|---------------------|----------|----------------------------*|
|---------------------|----------|----------------------------*|
|
| +E  E E E +E  E E E   W           E.    S   +E    E    H
|---------------------|----------|----------------------------*|
|---------------------|----------|----------------------------*|
|---------------------|----------|--9-----7---(7)---9---(9)\--*|
|-(5)-5-5-7-(7)-7-7s9-|-9--------|--9-----7---(7)---9---(9)\--*|
|-(3)-3-3-5-(5)-5-5s7-|-7--------|--7-----5---(5)---7---(7)\--*|
|---------------------|----------|----------------------------*|


Duration Legend
---------------
W - whole; H - half; Q - quarter; E - 8th; S - 16th; T - 32nd; X - 64th; a - acciaccatura
+ - note tied to previous; . - note dotted; .. - note double dotted
Uncapitalized letters represent notes that are staccato (1/2 duration)
Irregular groupings are notated above the duration line
Duration letters will always appear directly above the note/fret number it represents the
duration for.  Duration letters with no fret number below them represent rests.  Multi-
bar rests are notated in the form Wxn, where n is the number of bars to rest for.  Low
melody durations appear below the staff

Tablature Legend
----------------
 h   - hammer-on
 p   - pull-off
 b   - bend
 pb  - pre-bend
 r   - bend release (if no number after the r, then release immediately)
 /\  - slide into or out of (from/to "nowhere")
 s   - legato slide
 S   - shift slide
  - natural harmonic
[n]  - artificial harmonic
n(n) - tapped harmonic
 ~   - vibrato
 tr  - trill
 T   - tap
 TP  - trem. picking
 PM  - palm muting
\n/  - tremolo bar dip; n = amount to dip
 \n  - tremolo bar down
 n/  - tremolo bar up
/n\  - tremolo bar inverted dip
 =   - hold bend; also acts as connecting device for hammers/pulls
 <>  - volume swell (louder/softer)
 x   - on rhythm slash represents muted slash
 o   - on rhythm slash represents single note slash

Misc Legend
-----------
 |  - bar
||  - double bar
||o - repeat start
o|| - repeat end
*|  - double bar (ending)
 :  - bar (freetime)
 $  - Segno
 &  - Coda
Tempo markers -  = BPM(8/16=s8/s16), where s8 = swing 8ths, s16 = swing 16ths
Comments