Sum 41 - Pain For Pleasure Chords & Tabs

 

Pain For Pleasure Chords & Tabs

Sum 41 Chords & Tabs

Version: 10 Type: Tab 0 ratings
1 star 2 stars 3 stars 4 stars 5 stars
comments

Pain For Pleasure Tab

you people make everything so hard this song is awesome and anyone can play it.
power chords make things so much easier.

e:---------------------------------------------------
b:6-6-9-8-6-4-4-9-8-6-2-2-9-8-6-1-1--1-4-------------
g:8-8-------6-6-------4-4-------3-3--1-6-------------
d:8-8-------6-6-------4-4-------3-3--3-6-------------
a:---------------------------------------------------
[ Tab from: http://www.guitartabs.cc/tabs/s/sum_41/pain_for_pleasure_tab_ver_10.html ]
e:-----------------------------------------------------
b:6-6-9-8-6-4-4-9-8-6-2-2-9-8-6-11-10--8---------------
g:8-8-------6-6-------4-4-------13-12--10--------------
d:8-8-------6-6-------4-4-------13-12--10--------------
a:-----------------------------------------------------
this next part is kind of tricky but it gets easy after you get the hang of it.
Be sure to play it really fast

e:----------------------------------------------------
b:6-9-8-6-9-8-4-9-8-6-9-8-2-9-8-6-9-8-1-9-8-6-9-4-6---
g:8---------------------------------------------------
d:8---------------------------------------------------
a:----------------------------------------------------

e:----------------------------------------------------
b:6-9-8-6-9-8-4-9-8-6-9-8-2-9-8-6-9-8-1-9-8-6-9-4-6---
g:8---------------------------------------------------
d:8---------------------------------------------------
a:----------------------------------------------------

see? thats the hard part the rest any idiot can figure out. This is just for one guitar
If you have 2 have one person play it up a string so instead of on b you would be on g you
get the picture. It will sound just like sum 41
Comments