Sum 41 - Over My Head Chords & Tabs

 

Over My Head Chords & Tabs

Sum 41 Chords & Tabs

Version: 6 Type: Tab 0 ratings
1 star 2 stars 3 stars 4 stars 5 stars
comments

Over My Head Tab

-------------------------------------------------------------------------------
			     Sum 41 - Over My Head
-------------------------------------------------------------------------------
X=SKIP							Tell me what you think.
^=BEND

By: The Crazy Guitarist

  Intro 
e|---------------------------------------------------------------------------|x4
B|---------------------------------------------------------------------------|
G|---------------------------------------------------------------------------|
D|----------9------------7-------7-------------------------------------------|
A|-7-7-10-7---7-10-9-9-9---9-5-5---------------------------------------------|
E|---------------------------------------------------------------------------|

  heavely palm muted verse
e|---------------------------------------------------------------------------|x6
B|---------------------------------------------------------------------------|
G|---------------------------------------------------------------------------|
D|----------9------------7-------7-------------------------------------------|
A|-7-7-10-7---7-10-9-9-9---9-5-5---------------------------------------------|
E|---------------------------------------------------------------------------|
[ Tab from: http://www.guitartabs.cc/tabs/s/sum_41/over_my_head_tab_ver_6.html ]
  Chorus!
e|---------------------------------------------------------------------------|x1
B|---------------------------------------------------------------------------|
G|---------------------------------------------------------------------------|
D|-22222222-55555555-77777777-00000000-22222222-00000000-55555555-00000000---|
A|-22222222-55555555-77777777-00000000-22222222-00000000-55555555-00000000---|
E|-22222222-55555555-77777777-00000000-22222222-00000000-55555555-00000000---|

  After Chorus Part
e|---------------------------------------------------------------------------|x2
B|---------------------------------------------------------------------------|
G|-12-X-14-14-X-12-12-X-11-11-X----------------------------------------------|
D|---------------------------------------------------------------------------|
A|---------------------------------------------------------------------------|
E|---------------------------------------------------------------------------|

  heavely palm muted verse
e|---------------------------------------------------------------------------|x6
B|---------------------------------------------------------------------------|
G|---------------------------------------------------------------------------|
D|----------9------------7-------7-------------------------------------------|
A|-7-7-10-7---7-10-9-9-9---9-5-5---------------------------------------------|
E|---------------------------------------------------------------------------|
Comments