Sum 41 - Over My Head Chords & Tabs

 

Over My Head Chords & Tabs

Sum 41 Chords & Tabs

Version: 1 Type: Tab 1 rating
1 star 2 stars 3 stars 4 stars 5 stars
comments

Over My Head Tab

#----------------------------------PLEASE NOTE---------------------------------#
#This file is the author's own work and represents their interpretation of the #
#song. You may only use this file for private study, scholarship, or research. #
#------------------------------------------------------------------------------#

Name: Over My Head
Artist: Sum 41
Album: Does This Look Infected
Track Number 2

Intro: Distorted and Palm Muted

E--------------------------------------------------|
B--------------------------------------------------|
G--------------4-----4-----------2-----------------| X2
D--------5--------5-----5--4--4-----4--------4-----|
A--7--7-----7--------------------------5--5-----5--|
D--------------------------------------------------|

No Palm Mute (Distorted)

E--------------------------------------------------|
B--------------------------------------------------|
G--------------------------------------------------| X4
D--2--2--2--2--5--5--5--5--0--0--0--0--5--5--5--5--|
A--2--2--2--2--5--5--5--5--0--0--0--0--5--5--5--5--|
D--2--2--2--2--5--5--5--5--0--0--0--0--5--5--5--5--|

Verse is exactly like the intro, but play it 4 times instead of 2 times.

Distorted and Palm Muted

E--------------------------------------------------|
B--------------------------------------------------|
G--------------------------------------------------|
D--------5--------5-----5--------7--------7-----7--|
A--3--3--3--3--3--3--3--3--5--5--5--5--5--5--5--5--|
D--------------------------------------------------|


E--------------------------------------------------|
B--------------------------------------------------|
G--------------------------------------------------|
D--9--9--9--9--9--9--9--9--9--9--9--9--9--9--9--9--|
A--7--7--7--7--7--7--7--7--7--7--7--7--7--7--7--7--|
D--------------------------------------------------|
[ Tab from: http://www.guitartabs.cc/tabs/s/sum_41/over_my_head_tab.html ]
E--------------------------------------------------|
B--------------------------------------------------|
G--------------------------------------------------|
D--------5--------5-----5--------7--------7-----7--|
A--3--3--3--3--3--3--3--3--5--5--5--5--5--5--5--5--|
D--------------------------------------------------|


E--------------------------------------------------|
B--------------------------------------------------|
G--------------------------------------------------|
D--9--9--9--9--9--9--9--9--9--9--9-----------------|
A--7--7--7--7--7--7--7--7--7--7--7-----------------|
D--------------------------------------------------|


Chorus: Distorted no Palm Mute

E--------------------------------------------------|
B--------------------------------------------------|
G--------------------------------------------------|
D--2--2--2--2--2--2--2--2--5--5--5--5--5--5--5--5--|
A--2--2--2--2--2--2--2--2--3--3--3--3--3--3--3--3--|
D--2--2--2--2--2--2--2--2--------------------------|
 (Now I'm in....)

E--------------------------------------------------|
B--------------------------------------------------|
G--------------------------------------------------|
D--5--5--5--5--5--5--5--5--7--7--7--7--7--7--7--7--|
A--5--5--5--5--5--5--5--5--5--5--5--5--5--5--5--5--|
D--5--5--5--5--5--5--5--5--------------------------|


E--------------------------------------------------|
B--------------------------------------------------|
G--------------------------------------------------|
D--2--x--5--5--x--5--5--x--7--7--x--2--2--x--5--5--|
A--2--x--3--3--x--5--5--x--5--5--x--2--2--x--3--3--|
D--2--x--------x--5--5--x--------x--2--2--x--------|


E--------------------------------------------------|
B--------------------------------------------------|
G--------------------------------------------------|
D--x--5--5--x--7--7--x-----------------------------|
A--x--5--5--x--5--5--x-----------------------------|
D--x--5--5--x--------x-----------------------------|

Back to the Verse

That's all I got time for, I hope thats easy to understand
and you figure it all out nice. If you got any question, I've
got the answers. Just E-mail me at "Sk8erman4life876@aol.com"
Later! David
Comments