Sum 41 - Open Your Eyes Chords & Tabs

 

Open Your Eyes Chords & Tabs

Sum 41 Chords & Tabs

Version: 1 Type: Tab 0 ratings
1 star 2 stars 3 stars 4 stars 5 stars
comments

Open Your Eyes Tab

   
This is my first tab, so it may not be correct, u'll have to figure that one out for
urselves, but no one else has tried it so i figured i would. If u got suggestions email
me at yochampaigne@earthlink.net

Standard Tuning
/-slide
b-bend

Intro

e:-----------------|
B:-----------------|
G:-----6-6-----3-3-|
D:-3-3-4-4-6-6-3-3-| X2
A:-3-3-4-4-4-4-1-1-|
E:-1-1-----4-4-----|
  (Lately....delusion)
  (Don't u...apart)

Verse

e:---------|
B:---------|
G:---6---3-|
D:-3-6-6-3-|
A:-3-4-6-1-|
E:-1---4---|
  p.m............. listen for strumming
  (If...see)
  (As...reality)

Chorus
[ Tab from: http://www.guitartabs.cc/tabs/s/sum_41/open_your_eyes_tab.html ]
e:-----------------|
B:-----------------|
G:-----6-----------|
D:-3---6---6---8---|
A:-3---4---6---8---|
E:-1-------4---6---|
  listen for strumming again
  (This...real)
  (This...through)

Repeat Verse
Repeat Chorus

Riff/Pre-Solo            Solo

e:---------------------------------------------------------------|
B:---------------------------------------------------------------|
G:-----6-6---------------11/1-9b-11b-10b-11b-14b-12b-14b-12b-16b-|X2
D:-3-3-6-6-X4----------------------------------------------------|
A:-3-3-4-4-------------------------------------------------------|
E:-1-1-----------------------------------------------------------|
  (Its...up)

Repeat Chorus
Comments