Sum 41 - Nothing On My Back Chords & Tabs

 

Nothing On My Back Chords & Tabs

Sum 41 Chords & Tabs

Version: 6 Type: Tab 0 ratings
1 star 2 stars 3 stars 4 stars 5 stars
comments

Nothing On My Back Tab

   
                               NOTHING ON MY BACK
                              As recorded by Sum 41
                   (From the 2001 Album ALL KILLER NO FILLER)

Words and Music by Sum 41
Arranged by Stephen Brown
Transcribed by Stephen Brown

          A5V                  F#5                  G5                  A#5VI
      1 3 3 x x x          1 3 3 x x x          3 5 5 x x x          0 0 0 0 0 0

         B5VII                E5VII                Eb5VI                 D5V
      1 3 3 0 0 0          x 1 4 4 x x          x 1 3 3 x x          x 1 3 3 x x

Gtr I (E A D G B E) - 'Untitled'
Gtr II (E A D G B E) - 'Untitled'
Gtr III (E A D G B E) - 'Untitled'
Gtr IV (E A D G B E) - 'Untitled'
Gtr V (E A D G B E) - 'Untitled'
Gtr VI (E A D G B E) - 'Untitled'

 Intro
  Moderately Fast Rock Q=170
  A5   C#D5  G5   C#D5       A5   C#D5  G5   C#D5
 7/4
  Gtr I
  Q  E E E E Q  E E Q  E E   Q  E E E E Q  E E E E E E
|--------------------------|----------------------------||
|--------------------------|----------------------------||
|------6-7-x------6-7--7---|------6-7-x------6-7-7-7----||
|-7--x-6-7-x-5--x-6-7--7-0-|-7--x-6-7-x-5--x-6-7-7-7-0--||
|-7--x-4-5-x-5--x-4-5--5-0-|-7--x-4-5-x-5--x-4-5-5-5-0--||
|-5--x-4-5-x-3--x-4-5--5-0-|-5--x-4-5-x-3--x-4-5-5-5-0--||


    A5   C#D5  G5   C#D5         A5   C#D5  G5   C#D5
    Gtrs II, III
    Q  E E E E Q  E E Q  E E  3x Q  E E E E Q  E E E E E E
||----------------------------||----------------------------|
||o--------------------------o||----------------------------|
||-----x-6-7-x------6-7--7----||------6-7-x------6-7-7-7----|
||--7--x-6-7-x-5--x-6-7--7-0--||-7--x-6-7-x-5--x-6-7-7-7-0--|
||o-7--x-4-5-x-5--x-4-5--5-0-o||-7--x-4-5-x-5--x-4-5-5-5-0--|
||--5--x-4-5-x-3--x-4-5--5-0--||-5--x-4-5-x-3--x-4-5-5-5-0--|


 4/4
  Gtr I
  E E E E E E E E   E E E E E E E E   E E E E E E E E   E E E E E E E E
|-----------------|-----------------|-----------------|-----------------||
|-----------------|-----------------|-----------------|-----------------||
|-----------------|-----------------|-----------------|-----------------||
|-----------------|-----------------|-----------------|-----------------||
|-----------------|-----------------|-----------------|-----------------||
|-5-5-5-5-5-5-5-5-|-5-5-5-5-5-5-5-5-|-5-5-5-5-5-5-5-5-|-5-5-5-5-5-5-5-5-||


 Verse
  A5                        F#5   G5  A5
  E E E E E E E E   E E E E E E E E   Q  q  H         W
|-----------------|-----------------|------------|---------|
|-----------------|-----------------|------------|---------|
|-----------------|-----------------|------------|---------|
|-----------------|-----------4-4-5-|-7--7-------|---------|
|-----------------|-----------4-4-5-|-7--7-------|---------|
|-5-5-5-5-5-5-5-5-|-5-5-5-5-5-2-2-3-|-5--5-------|---------|


  G5   F#G5   F#5      E5        A5
                                 PM--|
  Q  E E Q  E E   Q  E E Q  Q    E E E E E E E E   E E E E E E E E
|---------------|--------------|-----------------|------------------|
|---------------|--------------|-----------------|------------------|
|---------------|--------------|-6-6-6---6-6-6-6-|-6-6-6-6-6-6-6-6--|
|-5----4-5----4-|-4----2-2--2--|-7-7-7---7-7-7-7-|-7-7-7-7-7-7-7-7--|
|-5----4-5----4-|-4----2-2--2--|-----------------|------------------|
|-3----2-3----2-|-2----0-0--0--|-----------------|------------------|


                                      G5   F#G5      D5
                                      Gtrs I, II, III, IV
  PM--|             PM----------|
  E E E E E E E E   E E E E E E E E   Q  E E Q  Q    E E E E E E E E
|-----------------|-----------------|--------------|------------------|
|-----------------|-----------------|--------------|------------------|
|-6-6-6---6-6-6-6-|-6-6-6-6-6-6-6-6-|--------------|-7-7-7-7-7-7-7-7--|
|-7-7-7---7-7-7-7-|-7-7-7-7-7-7-7-7-|-5----4-5--5--|-7-7-7-7-7-7-7-7--|
|-----------------|-----------------|-5----4-5--5--|-5-5-5-5-5-5-5-5--|
|-----------------|-----------------|-3----2-3--3--|------------------|


                          Chorus
                        $
  E5                       A5    AbG5       D5     E5
                        Gtrs II, III, V
  E E E E E  E   E   E     E E E E Q  E E   Q  E E Q  E E
|-----------------------||----------------|---------------|
|-----------------------||----------------|---------------|
|-9-9-9-9-9--9---9---9--||----------------|-7--7-x--------|
|-9-9-9-9-9--9---9---9--||-7-7-7-6-5--5-x-|-7--7-x-2--2-x-|
|-7-7-7-7-7--7---7---7--||-7-7-7-6-5--5-x-|-5--5-x-2--2-x-|
|-----------------------||-5-5-5-4-3--3-x-|--------0--0-x-|
|
|           Gtr V
| H       E  E   E   E
|-----------------------||----------------|---------------|
|-----------------------||----------------|---------------|
|-----------------------||----------------|---------------|
|-----------------------||----------------|---------------|
|-----------------------||----------------|---------------|
|-----------<5>-<5>-<5>-||----------------|---------------|


  A5V   AbG5       D5     E5       A5V   AbG5
  E E E E Q  E E   Q  E E Q  E E   E E E E Q  E E
|----------------|---------------|----------------|
|----------------|---------------|----------------|
|----------------|-7--7-x--------|----------------|
|-7-7-7-6-5--5-x-|-7--7-x-2--2-x-|-7-7-7-6-5--5-x-|
|-7-7-7-6-5--5-x-|-5--5-x-2--2-x-|-7-7-7-6-5--5-x-|
|-5-5-5-4-3--3-x-|--------0--0-x-|-5-5-5-4-3--3-x-|


                                           To Coda
  D5     E5       A5V   AbG5       D5    E5
  Q  E E Q  E E   E E E E Q  E E   E E E E +H       +H.      H
|---------------|----------------|----------------|-------------||
|---------------|----------------|----------------|-------------||
|-7--7-x--------|----------------|-7-7-7----------|-------------||
|-7--7-x-2--2-x-|-7-7-7-6-5--5-x-|-7-7-7-2-(2)----|-(2)---------||
|-5--5-x-2--2-x-|-7-7-7-6-5--5-x-|-5-5-5-2-(2)----|-(2)---------||
|--------0--0-x-|-5-5-5-4-3--3-x-|-------0-(0)----|-(0)------x\-||


   Interlude
    A5V  C#D5  G5   C#D5         A5V  C#D5  G5   C#D5
    Gtrs II, III
    Q  E E E E Q  E E Q  E E  3x Q  E E E E Q  E E E E E E
||----------------------------||----------------------------||
||o--------------------------o||----------------------------||
||-----x-6-7-x------6-7--7----||------6-7-x------6-7-7-7----||
||--7--x-6-7-x-5--x-6-7--7-0--||-7--x-6-7-x-5--x-6-7-7-7-0--||
||o-7--x-4-5-x-5--x-4-5--5-0-o||-7--x-4-5-x-5--x-4-5-5-5-0--||
||--5--x-4-5-x-3--x-4-5--5-0--||-5--x-4-5-x-3--x-4-5-5-5-0--||


                                         Bridge
    A       G         A       D           A       G         A       D
   4/4
    PM|   PM--|   PM----|   PM--|   PM------|   PM--|   PM----|   PM--|   PM
    E E E E E E E E   E E E E E E E E     E E E E E E E E   E E E E E E E E
||------------------|------------------||-----------------|------------------|
||o-----------------|-----------------o||-----------------|------------------|
||------------------|-------------7----||-----------------|-------------7----|
||------7-------5---|-----7---4-4-4----||-----7-------5---|-----7---4-4-4----|
||o-4-4-4---2-2-2---|-4-4-4---5-5-5---o||-4-4-4---2-2-2---|-4-4-4---5-5-5----|
||--5-5-5-0-3-3-3-0-|-5-5-5-0-------0--||-5-5-5-0-3-3-3-0-|-5-5-5-0-------0--|


    A       G         A       D
    PM|   PM--|   PM----|   PM--|   PM
    E E E E E E E E   E E E E E E E E  3x
||------------------|------------------||
||o-----------------|-----------------o||
||------------------|-------------7----||
||------7-------5---|-----7---4-4-4----||
||o-4-4-4---2-2-2---|-4-4-4---5-5-5---o||
||--5-5-5-0-3-3-3-0-|-5-5-5-0-------0--||


                                              D.S. al Coda
  A       G         A       D                      E5
  PM|   PM--|   PM----|   PM----|
  E E E E E E E E   E E E E E E E E   q  Q  H      W
|-----------------|-----------------|------------|---------||
|-----------------|-----------------|------------|---------||
|-----------------|-----------------|------------|---------||
|-----7-------5---|-----7---4-4-4-4-|-4----------|-2-------||
|-4-4-4---2-2-2---|-4-4-4---5-5-5-5-|-5----------|-2-------||
|-5-5-5-0-3-3-3-0-|-5-5-5-0---------|------------|-0-------||


                              1.,2.,3.
  +W             +W           +W
|------------||-------------|-------------||
|------------||o------------|------------o||
|------------||-------------|-------------||
|-(2)--------||--(2)--------|-(2)---------||
|-(2)--------||o-(2)--------|-(2)--------o||
|-(0)--------||--(0)--------|-(0)---------||


  4.
  +W           Q  +Q    H      Wx3
|------------|---------------|--------|
|------------|---------------|--------|
|------------|-9--(9)\-------|--------|
|-(2)--------|-x-------------|--------|
|-(2)--------|-7--(7)\-------|--------|
|-(0)--------|---------------|--------|


  D5    A5V     B/D# E5
  Gtr V
      W                  W        Q.    E   +Q     Q      W
|------------------|-----------|-----------------------|--------|
|------------------|-----------|-----------------------|--------|
|------------------|-----------|-----------------------|--------|
|------------------|-----------|-----------------------|--------|
|------------------|-----------|-----------------------|-<7>----|
|------------------|-----------|-<4>---<5>-(<5>)--<7>--|--------|
|
| Gtrs II, III
| E E E E +E  E Q    W           +W                      +W
|------------------|-----------|-----------------------|--------|
|------------------|-----------|-----------------------|--------|
|-7-7-7---------8--|-9---------|-(9)-------------------|-(9)----|
|-7-7-7-7-(7)-x-x--|-x---------|-----------------------|--------|
|-5-5-5-7-(7)-x-6--|-7---------|-(7)-------------------|-(7)----|
|-------5-(5)-x----|-----------|-----------------------|--------|

[ Tab from: http://www.guitartabs.cc/tabs/s/sum_41/nothing_on_my_back_tab_ver_6.html ]
  D5        A5V     B/D# E5
   +W                      W              Q.    E    +Q     Q       W
|----------------------|--------------|-<12>---------------------|-<5>----|
|----------------------|--------------|-------<12>-(<12>)--<5>---|--------|
|----------------------|--------------|--------------------------|--------|
|----------------------|--------------|--------------------------|--------|
|-(<7>)----------------|-(<7>)--------|--------------------------|--------|
|----------------------|--------------|--------------------------|--------|
|
|   E   E E E +E  E Q      W             +W                        +W
|----------------------|--------------|--------------------------|--------|
|----------------------|--------------|--------------------------|--------|
|---7---7-7---------8--|---9----------|--(9)---------------------|-(9)----|
|---7---7-7-7-(7)-x-x--|---x----------|--------------------------|--------|
|---5---5-5-7-(7)-x-6--|---7----------|--(7)---------------------|-(7)----|
|-----------5-(5)-x----|--------------|--------------------------|--------|


  D5     A5V     B/D#  E            D5   A5V     B/D#  E
  +W                        W            W                  W
|-(5)----------------|------------|------------------|-----------|
|--------------------|------------|------------------|-----------|
|--------------------|------------|------------------|-----------|
|--------------------|------------|------------------|-----------|
|--------------------|------------|------------------|-----------|
|--------------------|------------|------------------|-----------|
|
| Gtr III
|  Q   E E +E  E  Q     W           Q  E E +E  E  Q     W
|--------------------|------------|------------------|-----------|
|--------------------|------------|------------------|-----------|
|--7---x---------11--|-13---------|-7--x---------11--|-13--------|
|--7---x-7-(7)-x--x--|--x---------|-7--x-7-(7)-x--x--|--x--------|
|--5---x-7-(7)-x--9--|-11---------|-5--x-7-(7)-x--9--|-11--------|
|--------5-(5)-x-----|------------|------5-(5)-x-----|-----------|
|
| Gtr II
|  Q   E E +E  E  Q     W           Q  E E +E  E  Q     W
|--------------------|------------|------------------|-----------|
|--------------------|------------|------------------|-----------|
|--7---x----------8--|--9---------|-7--x----------8--|--9--------|
|--7---x-7-(7)-x--8--|--9---------|-7--x-7-(7)-x--8--|--9--------|
|--5---x-7-(7)-x--6--|--7---------|-5--x-7-(7)-x--6--|--7--------|
|--------5-(5)-x-----|--0---------|------5-(5)-x-----|--0--------|


  D5   A5V     Eb5VID5   A5V     Eb5VD5   A5V     Eb5VI
  Gtrs II, III
  Q  E E +E  E Q    Q  E E +E  E E   Q  E E +E  E E
|-----------------|----------------|----------------|
|-----------------|----------------|----------------|
|-7--x---------8--|-7--x---------8-|-7--x---------8-|
|-7--x-7-(7)-x-8--|-7--x-7-(7)-x-8-|-7--x-7-(7)-x-8-|
|-5--x-7-(7)-x-6--|-5--x-7-(7)-x-6-|-5--x-7-(7)-x-6-|
|------5-(5)-x-6--|------5-(5)-x-6-|------5-(5)-x-6-|


  A5V                                  E5
  PM------------------------------|
  E E E E E E E E   E E E E E E E E    Q  Q  H
|-----------------|-----------------||---------|
|-----------------|-----------------||---------|
|-----------------|-----------------||---------|
|-7-7-7-7-7-7-7-7-|-7-7-7-7-7-7-7-7-||-2-------|
|-7-7-7-7-7-7-7-7-|-7-7-7-7-7-7-7-7-||-2-------|
|-5-5-5-5-5-5-5-5-|-5-5-5-5-5-5-5-5-||-0-------|


               E5    EbD5V       A5V   A#B5VII     E5VII EbD5V
               Gtr IV
               PM------------------------------------------------|
  Wx3          E E E E E E E E   E E E E E E E E   E E E E E E E E
|------------|-----------------|-----------------|------------------|
|------------|-----------------|-----------------|------------------|
|------------|-9-9-9-8-7-7-7-7-|-----------------|-9-9-9-8-7-7-7-7--|
|------------|-9-9-9-8-7-7-7-7-|-7-7-7-8-9-9-9-9-|-9-9-9-8-7-7-7-7--|
|------------|-7-7-7-6-5-5-5-5-|-7-7-7-8-9-9-9-9-|-7-7-7-6-5-5-5-5--|
|------------|-----------------|-5-5-5-6-7-7-7-7-|------------------|


  A5V   A#B5VII     E5VII   Dsus2     A       Badd4
      W             E E E E E E E E   E E E E E E E E
|-----------------|-----0-------0---|-----0-------0---|
|-----------------|---5---0---3---3-|---2---2---4---4-|
|-----------------|-4-------2-------|-2-------4-------|
|-----------------|-----------------|-----------------|
|-----------------|-----------------|-----------------|
|-----------------|-----------------|-----------------|
|
| PM--------------------|   PM|   PM----|   PM--|   PM
| E E E E E E E E   E E E E E E E E   E E E E E E E E
|-----------------|-----------------|-----------------|
|-----------------|-----------------|-----------------|
|-----------------|-----9-------7---|-----------------|
|-7-7-7-8-9-9-9-9-|---9-9-----7-7---|-----7-------9---|
|-7-7-7-8-9-9-9-9-|-7-----6-5-----5-|---7-7-----9-9---|
|-5-5-5-6-7-7-7-7-|-----------------|-5-----6-7-----7-|


  E5VII   Dsus2     A       Badd4     E5VII   Dsus2
  E E E E E E E E   E E E E E E E E   E E E E E E E E
|-----0-------0---|-----0-------0---|-----0-------0---|
|---5---0---3---3-|---2---2---4---4-|---5---0---3---3-|
|-4-------2-------|-2-------4-------|-4-------2-------|
|-----------------|-----------------|-----------------|
|-----------------|-----------------|-----------------|
|-----------------|-----------------|-----------------|
|
| PM|   PM--|   PM----|   PM--|   PM----|   PM--|   PM
| E E E E E E E E   E E E E E E E E   E E E E E E E E
|-----------------|-----------------|-----------------|
|-----------------|-----------------|-----------------|
|-----9-------7---|-----------------|-----9-------7---|
|---9-9-----7-7-5-|-----7-------9---|---9-9-----7-7---|
|-7-----6-5-------|---7-7-----9-9---|-7-----6-5-----5-|
|-----------------|-5-----6-7-----7-|-----------------|


  A       Badd4     E5VII   Dsus2     A5    A#B5VII
                                    Gtrs II, IV
                                      E E E E E E E E
                                      | | | | | | | |
                                      / / / / / / / /

  Gtr II
  E E E E E E E E   E E E E E E E E
|-----0-------0---|-----0-------0---|-----------------||
|---2---2---4---4-|---5---0---3---3-|-----------------||
|-2-------4-------|-4-------2-------|-----------------||
|-----------------|-----------------|-----------------||
|-----------------|-----------------|-----------------||
|-----------------|-----------------|-----------------||
|
| Gtr III
| PM|   PM--|   PM----|   PM--|   PM
| E E E E E E E E   E E E E E E E E   E E E E E E E E
|-----------------|-----------------|-----------------||
|-----------------|-----------------|-----------------||
|-----------------|-----9-------7---|-----------------||
|-----7-------9---|---9-9-----7-7---|-7-7-7-8-9-9-9-9-||
|---7-7-----9-9---|-7-----6-5-----5-|-7-7-7-8-9-9-9-9-||
|-5-----6-7-----7-|-----------------|-5-5-5-6-7-7-7-7-||


 Chorus
  E5VII Eb5D5V         A5V   A#B5VII     E5VII Eb5D5V
  E E E  E  Q   E  E   E E E E E E E E   E E E  E  Q   E  E
  | | |  |  |   |  |   | | | | | | | |   | | |  |  |   |  |
  / / /  /  /   /  x   / / / / / / / x   / / /  /  /   /  x

  E E E  E  Q   Q      E E E E E E E E   E E E  E  E   E
|--------------------|-----------------|--------------------|
|--------------------|-----------------|--------------------|
|-9-9-9-11-11--11\---|-6-6-6-7-8-8-8-8-|-9-9-9-11-11--11\---|
|-x-x-x--x--x---x----|-x-x-x-x-x-x-x-x-|-x-x-x--x--x---x----|
|-7-7-7--9--9---9\---|-4-4-4-5-6-6-6-6-|-7-7-7--9--9---9\---|
|--------------------|-----------------|--------------------|


  A5V    A#B5VII     E5VII Eb5D5V         A5V   A#B5VII
   E E E E E E E E   E E E  E  Q   E  E   E E E E E E E E
   | | | | | | | |   | | |  |  |   |  |   | | | | | | | |
   / / / / / / / x   / / /  /  /   /  x   / / / / / / / x

   E E E E E E E E   E E E  E  Q   Q      E E E E E E E E
|------------------|--------------------|-----------------|
|------------------|--------------------|-----------------|
|-\6-6-6-7-8-8-8-8-|-9-9-9-11-11--11\---|-6-6-6-7-8-8-8-8-|
|--x-x-x-x-x-x-x-x-|-x-x-x--x--x---x----|-6-6-6-7-8-8-8-8-|
|-\4-4-4-5-6-6-6-6-|-7-7-7--9--9---9\---|-4-4-4-5-6-6-6-6-|
|------------------|--------------------|-----------------|


  E5VII Eb5D5V         A5V A#B5VII
  E E E  E  Q   E  E   E E E E  H       W
  | | |  |  |   |  |   | | | |  |       |
  / / /  /  /   /  x   / / / /  /       /

  E E E  E  Q   Q      E E E E +H       W
|--------------------|----------------|------*|
|--------------------|----------------|------*|
|-9-9-9-11-11--11\---|-6-6-7-8-(8)----|-8----*|
|-x-x-x--x--x---x----|-x-x-x-x-(x)----|------*|
|-7-7-7--9--9---9\---|-4-4-5-6-(6)----|-6----*|
|--------------------|----------------|------*|


Duration Legend
---------------
W - whole; H - half; Q - quarter; E - 8th; S - 16th; T - 32nd; X - 64th; a - acciaccatura
+ - note tied to previous; . - note dotted; .. - note double dotted
Uncapitalized letters represent notes that are staccato (1/2 duration)
Irregular groupings are notated above the duration line
Duration letters will always appear directly above the note/fret number it represents the
duration for.  Duration letters with no fret number below them represent rests.  Multi-
bar rests are notated in the form Wxn, where n is the number of bars to rest for.  Low
melody durations appear below the staff

Tablature Legend
----------------
 h   - hammer-on
 p   - pull-off
 b   - bend
 pb  - pre-bend
 r   - bend release (if no number after the r, then release immediately)
 /\  - slide into or out of (from/to "nowhere")
 s   - legato slide
 S   - shift slide
  - natural harmonic
[n]  - artificial harmonic
n(n) - tapped harmonic
 ~   - vibrato
 tr  - trill
 T   - tap
 TP  - trem. picking
 PM  - palm muting
\n/  - tremolo bar dip; n = amount to dip
 \n  - tremolo bar down
 n/  - tremolo bar up
/n\  - tremolo bar inverted dip
 =   - hold bend; also acts as connecting device for hammers/pulls
 <>  - volume swell (louder/softer)
 x   - on rhythm slash represents muted slash
 o   - on rhythm slash represents single note slash

Misc Legend
-----------
 |  - bar
||  - double bar
||o - repeat start
o|| - repeat end
*|  - double bar (ending)
 :  - bar (freetime)
 $  - Segno
 &  - Coda
Tempo markers -  = BPM(8/16=s8/s16), where s8 = swing 8ths, s16 = swing 16ths
Comments