Sum 41 - Nothing On My Back Chords & Tabs

 

Nothing On My Back Chords & Tabs

Sum 41 Chords & Tabs

Version: 2 Type: Bass Tab 0 ratings
1 star 2 stars 3 stars 4 stars 5 stars
comments

Nothing On My Back Bass Tab

   
This tab sounds 100% right if u have any corrections email me at
firefly183@hotmail.com

Intro: 
G|-----------------|
D|-----------------|
A|-----45------45-5| 4x
E|-555----03-3-----|

Verse1:
G|--------|   |--------|
D|--------|   |--------|
A|--------| 1x|--------| 1x
E|-5--/--0|   |-223-5-5|

G|----------------|
D|----------------|
A|----------------| 1x
E|-3--23--22--00-0|

G|--------|   |--------| 
D|--------|   |--------| 
A|--------| 1x|--------| 1x
E|-5--/--0|   |-223-5-5| 
[ Tab from: http://www.guitartabs.cc/tabs/s/sum_41/nothing_on_my_back_btab_ver_2.html ]
|-------------------------|
|-------------------------|
|--------55555555-77777777| 1x
|-3--23-------------------|
Chorus:
G|------------------|
D|------------------|
A|----------5555----| 3x
E|-55543333-----0000|

G|------------------|
D|------------------|
A|----------5555----| 1x
E|-55543333-----0r--|

Intro 

Verse2:
G|----------|
D|----------|
A|----------| 12x
E|-5555-3333|

G|--------|
D|--------|
A|-5------| 1x
E|----0r--|

Chorus 

G|--| 
D|--| 
A|-9| (play this note over and over, about 50x) 
E|--|   

Bridge
G|---------|   |------------|
D|---------|   |------------|
A|-5-5--6-7| 4x|-5-5-----6--| 3x
E|----5----|   |-----5-5----|

G|---------|
D|---------|
A|---------| 1x
E|-55555555|

Verse3:
G|--------------------|
D|--------------------|
A|-9999-7777----------| 12x
E|-----------7777-9999|
Comments