Sum 41 - Noots Chords & Tabs

 

Noots Chords & Tabs

Sum 41 Chords & Tabs

Version: 1 Type: Tab 0 ratings
1 star 2 stars 3 stars 4 stars 5 stars
comments

Noots Tab

   
Album: Chuck
Artist: Sum 41
Tuning: e# B# G# D# A# D#
Tabbed by David Oriola
e-mail:diark76@hotmail

Intro 00:00
Guitar1
----9-9--9--9-9---10-10-10-1010-| x2
---10-10-10-1010---10-10-10-1111-|
---11-11-11-1010---11-11-11-1111-|
---------------------------------|
---------------------------------|
---------------------------------|
pm

Riff1 00:05
Guitar1
----9-9--9--9-9---10-10-10-1010---7-7-7-77--7-7-77-| x2
---10-10-10-1010---10-10-10-1111---9-9-9-99--9-9-99-|
---11-11-11-1010---11-11-11-1111---9-9-9-99--9-9-99-|
----------------------------------------------------|
----------------------------------------------------|
----------------------------------------------------|
pm
Guitar2
----------------------------------------| x2
----------------------------------------|
----------------------------------------|
---4-(x8)-7-(x8)--2-(x8)-7-(x4)-6-(x4)--|
---4------7-------2------7------6-------|
---2------5-------0------5------4-------|
pm
Guitar3
----------------------------------------| x2
----------------------------------------|
------------------------1-2-4-2-1-------|
---4-6-7-6--4-6-7-6--24---------2------|
----------------------------------------|
----------------------------------------|
pm

Verse 00:16
Guitar1
--------------------------------------------------------------------|
--------------------------------------------------------------------|
------------------9------------------------------------------7------|
---4-(x8)-7-(x8)--9-(x16)-4-(x8)-7-(x8)-9-(x4)-7-(x4)-9-(x4)-7-(x4)-|
---4------7-------7-------4------7------9------7------9------5------|
---2------5---------------2------5------7------5------7-------------|
pm ,,,,,,,,,,,,,,,,,,,,,,,,,,,,,,,,,,,,,,,,,,,,,,,,,,,,,,,,,,,,,,,,,

--------------------------------------------------------------------|
--------------------------------------------------------------------|
-----------------9--------------------------------------------------|
---4-(x8)-7-(x8)-9-(x16)-4-(x8)-7-(x8)-9-(x4)-7-(x4)-9-(x4)-11-(x4)-|
---4------7------7-------4------7------9------7------9------11------|
---2------5--------------2------5------7------5------7------9-------|
pm ,,,,,,,,,,,,,,,,,,,,,,,,,,,,,,
[ Tab from: http://www.guitartabs.cc/tabs/s/sum_41/noots_tab.html ]
Guitar2 between 00:27 and 00:29
---10------10------12-------|
---11-(x2)-11-(x2)-12-(x8)--|
---12------12------12-------|
----------------------------|
----------------------------|
----------------------------|
pm

Riff2 00:37
Guitar1
---------------------------------|
---------------------------------|
---------------------------------|
-------------------------------6-|
---7-7-5/7-7-5/7/9-7/5--7-7-5/7--|
---------------------------------|
pm

Chorus 00:42
Guitar1
----------------------------------------| x2
----------------------------------------|
----------7-----------------------------|
---4-(x8)-7-(x8)--7-(x8)-2-(x8)---------|
---4------5-------7------2--------------|
---2--------------5------0--------------|

----------------------------------------| x2
----------------------------------------|
---7------------------------------------|
---7-(x8)-4-(x8)--7-(x8)-2-(x8)---------|
---5------4-------7------2--------------|
----------2-------5------0--------------|

Riff1 01:04 x1
Verse 01:09
Riff2 01:30
Chorus 01:35

01:57
Guitar1
--------------------------------------------------------------|
--------------------------------------------------------------|
-11------7-------------9------11------7-----------------------|
-11-(x8)-7-(x8)-7-(x8)-9-(x8)-11-(x8)-7-(x8)-7-(x8)-7-(x8)--4-|
--9------5------7------7-------9------5------7------7-------4-|
----------------5----------------------------5------4-------2-|

02:07
Guitar1 (ska rhythm)
--9-------7------5------4------|x2
-10-(x11)-7-(x5)-6-(x3)-5-(x3)-|
-11-------7------6------6------|
-------------------------------|
-------------------------------|
-------------------------------|


-5------4--5------4--9------7------| x4
-6-(x5)-6--6-(x5)-6--9-(x8)-9-(x8)-|
-6------6--6------6--9------9------|
-----------------------------------|
-----------------------------------|
-----------------------------------|

Chorus 02:42

Riff3 03:04

Guitar1
------------------------|x3-------|
------------------------|---------|
----------7-------------|---------|
---4-(x8)-7-(x4)--2-(x4)|-2-(x16)-|
---4------5-------2-----|-2-------|
---2--------------0-----|-0-------|
pm

Guitar2
---------------------------------------------------------------------|
---------------------------------------------------------------------|
-----------------------------3-1-0-----------------------0-3-1-0-2-2-|
---4-6-7-6--4-6-7-6--4-6-7-4------2--4-6-7-6--4-6-7-42-4-2----------|
---------------------------------------------------------------------|
---------------------------------------------------------------------|
pm
Comments