Sum 41 - No Reason Chords & Tabs

 

No Reason Chords & Tabs

Sum 41 Chords & Tabs

Version: 4 Type: Tab 0 ratings
1 star 2 stars 3 stars 4 stars 5 stars
comments

No Reason Tab

   
-------------------------------------------------------------------------------
			                            Sum 41- No Reason
-------------------------------------------------------------------------------
Tabbed by: mentaldonkey182
Tuning: down 1/2 step

Intro 1:

E5    C5    G5  E5 E5      B5      D5           E5
All of us believe that this is not up to you
C5        G5                   E5 E5        B5       D5
The fact of the matter is that it's up to me

Intro 2:
                  Hey!                                Hey!                            Hey!
e|-----------------------------------------------------------------------------|
B|-----------------------------------------------------------------------------|
G|----------------------------------------------------------5------------------|
D|------5--5-4-0------------5--5-4-0-----------5--5-4-0----5------5------------|
A|----------------------------------------------------------3------5-----------|
E|--0-0----------------0-0----------------0-0----------------------3-----------|
                   Hey!                               Hey!                            Hey!
e|-----------------------------------------------------------------------------|
B|-----------------------------------------------------------------------------|
G|----------------------------------------------------------4------7-----------|
D|------5--5-4-0------------5--5-4-0-----------5--5-4-0----4------7------------|
A|----------------------------------------------------------2------5-----------|
E|--0-0----------------0-0----------------0-0----------------------------------|

Intro 3:

{G1 repeat intro x2 (replace power chords with Db --4--4h5/7--------, G2 play this:}

E5 x8  C5 x4  G5 x4  E5 x8  B5 x4  D5 x4 (x2)


Verse 1:

G1:
=
How can we fake this anymore?
=
Turn our backs away, and choose to just ignore

Some say it's ignorance/It makes me feel some innocence/
It takes away a part of me/But I won't let go
e|---------------------------------------------------------------------------------|
B|-5-5-5-5-7-7-7-7-8-8-8-8-10-10-10-10-12-12-12-12-10-10-10-10-8-8-8-8/10-10-10-10-|
G|---------------------------------------------------------------------------------|
D|---------------------------------------------------------------------------------|
A|---------------------------------------------------------------------------------|
E|---------------------------------------------------------------------------------| x2


G2:
E5 (play over and over -  (quavers) (eighth notes))
x

G3 (or bass maybe?)
1      2    3   4  1   2   3  4
e|---------|                      ---|
B|---------|                      ---|
G|---------|        =         . -----|
D|-5-4-0---|                   . ----|
A|---------|                      ---|
E|---------|                      ---|

[ Tab from: http://www.guitartabs.cc/tabs/s/sum_41/no_reason_tab_ver_4.html ]
Chorus
                   C5x8       G5x8   D5x16
Tell me why can't you see it's not the way
               C5x8 G5x8           D5x8   E5*x8        *root 7th fret on A string
When we all fall down it will be too late
           C5x8       G5x8 D5x16
Why is there no reason we can't change
              C5x8   G5x8              D5x8     E5*x8
When we all fall down who will take the blame
What will it

POST Chorus
take?
e|---------------------------------------------------------------------------|
B|---------------------------------------------------------------------------|
G|---------------------------------------------------------------------------|
D|--------2-----4-----5------------------------------------------------------|
A|---------------------------------------------------------------------------|
E|-0-0-0----0-0---0-0---0-0--2-2/3\2 ----------------------------------------|
     x  x  x       x  x     x  x      x  x


V2

If nothing could ever be this real
A life unsatisfied that I could never feel
This future's not so bright
Some can't make the sacrifice
It's more than just black and white
And I won't follow
(same tab as verse one)


Play chorus (don't play POST Chorus)

Bridge

E5*     D5  C5     B5  B5      D5B5  D5
Times like these I've come to see how                  *root on 7th A string
E5*D5C5   B5  B5    D5B5         D5
Everything but time is running out

                  Hey!                                Hey!                            Hey!
e|-----------------------------------------------------------------------------|
B|-----------------------------------------------------------------------------|
G|----------------------------------------------------------5------------------|
D|--2-2-5--5-4-0------------5--5-4-0-----------5--5-4-0----5------5------------|
A|--2-2-----------------------------------------------------3------5-----------|
E|--0-0----------------0-0----------------0-0----------------------3-----------|
                   Hey!                               Hey!                            Hey!
e|-----------------------------------------------------------------------------|
B|-----------------------------------------------------------------------------|
G|----------------------------------------------------------4------7-----------|
D|--2-2-5--5-4-0------2--2--5--5-4-0-----2-2---5--5-4-0----4------7------------|
A|--2-2----------------2-2----------------2-2---------------2------5-----------|
E|--0-0----------------0-0----------------0-0----------------------------------|


E5E5     B5x4 D5x4   E5x8  B5x4 D5x4
All    of us      believe      in what we need
E5x8 B5x4 D5x4 E5x8          B5x4  D5x4 d5x8 B5x8   (with this riff play last riff in background)
                                                                x
         What we     have's what we don't see


Play Chorus x2

With second chorus, vocals

So how long has this gone on
I don't seee this ending
It's too late, we can't change
What has now begun
We act like it's not right
Why are we pretending
We've been wrong for so long
We've known this all along

To end, play E5 9 times (eighth notes, quavers)

--------------------------------------------------------------------------------
| /  slide up
| \  slide down
| h  hammer-on
| p  pull-off
| ~  vibrato
| +  harmonic
| x  Mute note
| =  rest
===============================================================================
Comments