Sum 41 - No Reason Chords & Tabs

 

No Reason Chords & Tabs

Sum 41 Chords & Tabs

Version: 1 Type: Tab 0 ratings
1 star 2 stars 3 stars 4 stars 5 stars
comments

No Reason Tab

   
Sum 41 - No Reason
Tabbed By: sumguitarist99
Email: punkx09@aol.com

Tuning: Drop D (D A D G B E)

~ = let chord ring
PM = plam mute


E|--------------------------------------------------------------------------||
B|--------------------------------------------------------------------------||
G|-----4---------3--6------4---------3--6-----------------------------------||
D|-1~--4--4--1~--3--6--1~--4--4--1~--3--6-----------------------------------||
A|-1~--2--4--1~--1--4--1~--2--4--1~--1--4-----------------------------------||
D|-1~-----4--1~--------1~-----4--1~-----------------------------------------||

E|------------------------------------------------------------   ------------||
B|------------------------------------------------------------   ------------||
G|--------------------------------------------------------4----   -3--6------||
D|------4--4--3--1---------4--4--3--1---------4--4--3--1--4--4-   -3--6------||
A|--------------------------------------------------------2--4--  -1--4------||
D|-1--1--------------1--1---------------1--1-----------------4--  -----------||
You do this 1 more except on the second time, end with the two power chords, that i 
from the rest of tab

E|--------------------------------------------------------------------------||
B|--------------------------------------------------------------------------||
G|----4--------3--6-----4--------3--6---------------------------------------||
D|-1--4--4--1--3--6--1--4--4--1--3--6---------------------------------------||
A|-1--2--4--1--1--4--1--2--4--1--1--4---------------------------------------||
D|-1-----4--1--------1-----4--1---------------------------------------------||

Listen to the song for stumming pattern

VERSE x16


     PM               PM
E|------------------------------------------------------------------------||
B|------------------------------------------------------------------------||
G|------------------------------------------------------------------------||
D|--1-1-1-----------1-1-1--4--3--1----------------------------------------||
A|--1-1-1--4--3--1--1-1-1-------------------------------------------------||
D|--1-1-1-----------1-1-1-------------------------------------------------||

CHORUS x2

E|--------------------------------------------------------------------------||
B|--------------------------------------------------------------------------||
G|--4-4-4-4-----------6-6-6-6-6-6-6-6--4-4-4-4-----------6-6-6-6--8-8-8-8---||
D|--4-4-4-4--4-4-4-4--6-6-6-6-6-6-6-6--4-4-4-4--4-4-4-4--6-6-6-6--8-8-8-8---||
A|--2-2-2-2--4-4-4-4--4-4-4-4-4-4-4-4--2-2-2-2--4-4-4-4--4-4-4-4--6-6-6-6---||
D|-----------4-4-4-4----------------------------4-4-4-4---------------------||

riff after 1st chorus
[ Tab from: http://www.guitartabs.cc/tabs/s/sum_41/no_reason_tab.html ]
       PM       PM
E|----------------------------------------------------------------||
B|----------------------------------------------------------------||
G|----------------------------------------------------------------||
D|----------------------------------------------------------------||
A|-6--6-6---8--8-8---9--------4--1--------------------------------||
D|----------------------1--4--------1-----------------------------||

VERSE x16


     PM               PM
E|----------------------------------------------------------------||
B|----------------------------------------------------------------||
G|----------------------------------------------------------------||
D|--1-1-1-----------1-1-1--4--3--1--------------------------------||
A|--1-1-1--4--3--1--1-1-1-----------------------------------------||
D|--1-1-1-----------1-1-1-----------------------------------------||

CHORUS x2

E|--------------------------------------------------------------------------||
B|--------------------------------------------------------------------------||
G|--4-4-4-4-----------6-6-6-6-6-6-6-6--4-4-4-4-----------6-6-6-6--8-8-8-8---||
D|--4-4-4-4--4-4-4-4--6-6-6-6-6-6-6-6--4-4-4-4--4-4-4-4--6-6-6-6--8-8-8-8---||
A|--2-2-2-2--4-4-4-4--4-4-4-4-4-4-4-4--2-2-2-2--4-4-4-4--4-4-4-4--6-6-6-6---||
D|-----------4-4-4-4----------------------------4-4-4-4---------------------||


After second chorus x2

E|--------------------------------------------------------------------------||
B|--------------------------------------------------------------------------||
G|--8--6--4-----------4--6--------------------------------------------------||
D|--8--6--4--4--1--4--4--6--------------------------------------------------||
A|--6--4--2--4--1--4--2--4--------------------------------------------------||
D|-----------4--1--4--------------------------------------------------------||

E|------------------------------------------------------------   ------------||
B|------------------------------------------------------------   ------------||
G|--------------------------------------------------------4----   -3--6------||
D|------4--4--3--1---------4--4--3--1---------4--4--3--1--4--4-   -3--6------||
A|--------------------------------------------------------2--4--  -1--4------||
D|-1--1--------------1--1---------------1--1-----------------4--  -----------||

Breakdown

E|--------------------------------------------------------------------------||
B|--------------------------------------------------------------------------||
G|----4--------3--6-----4--------3--6---------------------------------------||
D|-1--4--4--1--3--6--1--4--4--1--3--6---------------------------------------||
A|-1--2--4--1--1--4--1--2--4--1--1--4---------------------------------------||
D|-1-----4--1--------1-----4--1---------------------------------------------||

Listen to the song for stumming pattern


CHORUS x4

E|--------------------------------------------------------------------------||
B|--------------------------------------------------------------------------||
G|--4-4-4-4-----------6-6-6-6-6-6-6-6--4-4-4-4-----------6-6-6-6--8-8-8-8---||
D|--4-4-4-4--4-4-4-4--6-6-6-6-6-6-6-6--4-4-4-4--4-4-4-4--6-6-6-6--8-8-8-8---||
A|--2-2-2-2--4-4-4-4--4-4-4-4-4-4-4-4--2-2-2-2--4-4-4-4--4-4-4-4--6-6-6-6---||
D|-----------4-4-4-4----------------------------4-4-4-4---------------------||


END ON

E|-------------------||
B|-------------------||
G|-------------------||
D|--1----------------||
A|--1----------------||
D|--1----------------||
Comments