Sum 41 - No Brains Chords & Tabs

 

No Brains Chords & Tabs

Sum 41 Chords & Tabs

Version: 4 Type: Tab 0 ratings
1 star 2 stars 3 stars 4 stars 5 stars
comments

No Brains Tab

: No Brains :  ____ _  _ __  __     ___  __
              / __/| | ||  \/  |   / _ |/  |
              \__ \| | ||      |  |__  | | |
              /___/|___/|_|\/|_|     |_| |_|  (I'm a loser)

I've been looking all over the internet and I haven't found a tab that's 100% correct yet
so I'm gonna do my best to change that... this tab is mostly the rhythm but I might add
lead later 

Tuning ... DADGBE

Intro x 3
E|-------------------------------------------------------------------
B|-------------------------------------------------------------------
G|-------------------------------------------------------------------
D|-4-4-4--2--4-4--0-0-0-0-0-0-0--7-7-7-7-7/2-2-2-2-222-2-2-----------
A|-4-4-4--2--4-4--0-0-0-0-0-0-0--7-7-7-7-7/2-2-2-2-222-2-2-----------
D|-4-4-4--2--4-4--0-0-0-0-0-0-0--7-7-7-7-7/2-2-2-2-222-2-2-----------
                                                   ...
 
Pre chorus x 2
E|------------------------------------------------------------------
B|------------------------------------------------------------------
G|------------------------------------------------------------------
D|0-0-0-0-0-0-0-0--2-2-2-2-2-2-2-2--4-4-4-4-4-4-4-4--7-7-7-7-7-7-7-7
A|0-0-0-0-0-0-0-0--2-2-2-2-2-2-2-2--4-4-4-4-4-4-4-4--7-7-7-7-7-7-7-7
D|0-0-0-0-0-0-0-0--2-2-2-2-2-2-2-2--4-4-4-4-4-4-4-4--7-7-7-7-6-6-6-6

  
chorus x 2
E|------------------------------------------------------------------
B|------------------------------------------------------------------
G|------------------------------------------------------------------
D|44-4-44-4--00-0-00-0--22-2-22-2--77-7-77-7------------------------
A|44-4-44-4--00-0-00-0--22-2-22-2--77-7-77-7------------------------
D|44-4-44-4--00-0-00-0--22-2-22-2--77-7-66-6------------------------

 
PM thingy x 2
E|------------------------------------------------------------------
B|------------------------------------------------------------------
G|11---------11---------11-----11---------11---------11-------------
D|11---------11---------11-----11---------11---------11-------------
A|-9-9-9-9-9--9-9-9-9-9--9-9-9--9-9-9-9-9--9-9-9-9-9--9-------------
D|------------------------------------------------------------------
     . . . .    . . . .    . .    . . . .    . . . .


Intro x3
E|-------------------------------------------------------------------
B|-------------------------------------------------------------------
G|-------------------------------------------------------------------
D|-4-4-4--2--4-4--0-0-0-0-0-0-0--7-7-7-7-7/2-2-2-2-222-2-2-----------
A|-4-4-4--2--4-4--0-0-0-0-0-0-0--7-7-7-7-7/2-2-2-2-222-2-2-----------
D|-4-4-4--2--4-4--0-0-0-0-0-0-0--7-7-7-7-7/2-2-2-2-222-2-2-----------
                                                   ...

Bridge x 2
E|-------------------------------------------------------------------
B|-------------------------------------------------------------------
G|-------------------------------------------------------------------
D|-4-4-4--4-4-4-4-4---4-4-4--4444--4-4-4-----------------------------
A|-4-4-4--4-4-4-4-4---4-4-4--4444--4-4-4-----------------------------
D|-4-4-4--4-4-4-4-4---4-4-4--4444--4-4-4-----------------------------
   . . .  . . . . .   . . .  ....  . . .

 
Pre chorus x 2
E|------------------------------------------------------------------
B|------------------------------------------------------------------
G|------------------------------------------------------------------
D|0-0-0-0-0-0-0-0--2-2-2-2-2-2-2-2--4-4-4-4-4-4-4-4--7-7-7-7-7-7-7-7
A|0-0-0-0-0-0-0-0--2-2-2-2-2-2-2-2--4-4-4-4-4-4-4-4--7-7-7-7-7-7-7-7
D|0-0-0-0-0-0-0-0--2-2-2-2-2-2-2-2--4-4-4-4-4-4-4-4--7-7-7-7-6-6-6-6


chorus x 2
E|------------------------------------------------------------------
B|------------------------------------------------------------------
G|------------------------------------------------------------------
D|44-4-44-4--00-0-00-0--22-2-22-2--77-7-77-7------------------------
A|44-4-44-4--00-0-00-0--22-2-22-2--77-7-77-7------------------------
D|44-4-44-4--00-0-00-0--22-2-22-2--77-7-66-6------------------------
                                                   
[ Tab from: http://www.guitartabs.cc/tabs/s/sum_41/no_brains_tab_ver_4.html ]
Pre chorus x 2
E|------------------------------------------------------------------
B|------------------------------------------------------------------
G|------------------------------------------------------------------
D|0-0-0-0-0-0-0-0--2-2-2-2-2-2-2-2--4-4-4-4-4-4-4-4--7-7-7-7-7-7-7-7
A|0-0-0-0-0-0-0-0--2-2-2-2-2-2-2-2--4-4-4-4-4-4-4-4--7-7-7-7-7-7-7-7
D|0-0-0-0-0-0-0-0--2-2-2-2-2-2-2-2--4-4-4-4-4-4-4-4--7-7-7-7-6-6-6-6


Pre solo x 2 (each bar)
E|------------------------------------------------------------------
B|------------------------------------------------------------------
G|------------------------------------------------------------------
D|0-0-0-0-0-0-0-0--2-2-2-2-2-2-2-2-------------------7-7-7-7-7-7-7-7
A|0-0-0-0-0-0-0-0--2-2-2-2-2-2-2-2--444444444444444--7-7-7-7-7-7-7-7
D|0-0-0-0-0-0-0-0--2-2-2-2-2-2-2-2--444444444444444--7-7-7-7-7-7-7-7
                                    ...............
E|------------------------------------------------------------------
B|------------------------------------------------------------------
G|------------------------------------------------------------------
D|0-0-0-0-0-0-0-0--2-2-2-2-2-2-2-2--4-4-4-4-4-4-4-4--7-7-7-7-7-7-7-7
A|0-0-0-0-0-0-0-0--2-2-2-2-2-2-2-2--4-4-4-4-4-4-4-4--7-7-7-7-7-7-7-7
D|0-0-0-0-0-0-0-0--2-2-2-2-2-2-2-2--4-4-4-4-4-4-4-4--7-7-7-7-7-7-7-7



 solo   *termelo pick the first set of notes 
E|-------------------------------------------------------------------
B|9-10-9-12-9-10-9-12-9-10-9--12b14r12p10-9-9h10p9-------------------
G|-------------------------------------------------11-11-9-11-9------
D|-------------------------------------------------------------------
A|-------------------------------------------------------------------
D|-------------------------------------------------------------------

E|----------------------------------------------23-21-19-19h21p19----
B|--------------------------------------/\\/\/--------------------22-
G|-11b13r11p9--9h11p9h11p9h11p9h11/\/\\/-----------------------------
D|-------------------------------------------------------------------
A|-------------------------------------------------------------------
D|-------------------------------------------------------------------

E|-----------------23b/\\/\/-----------------------------------------
B|-----22-21-22-21---------------------------------------------------
G|-------------------------------------------------------------------
D|-------------------------------------------------------------------
A|-------------------------------------------------------------------
D|-------------------------------------------------------------------

Breakdown x 6
E|-------------------------------------------------------------------
B|-------------------------------------------------------------------
G|-------------------------------------------------------------------
D|-7-7-6-6-----------------------------------------------------------
A|---------9-9-7-7-9-9-9-9-9-9-9-9-7-7-7-7-7-7-7-7-------------------
D|-------------------------------------------------9-9-9-9-9-9-9-9---
   . . . . . . . . . . . . . . . . . . . . . . . . . . . . . . . .


 chorus x 2
E|------------------------------------------------------------------
B|------------------------------------------------------------------
G|------------------------------------------------------------------
D|44-4-44-4--00-0-00-0--22-2-22-2--77-7-77-7------------------------
A|44-4-44-4--00-0-00-0--22-2-22-2--77-7-77-7------------------------
D|44-4-44-4--00-0-00-0--22-2-22-2--77-7-66-6------------------------


 
Pre solo x 2 
E|------------------------------------------------------------------
B|------------------------------------------------------------------
G|------------------------------------------------------------------
D|0-0-0-0-0-0-0-0--2-2-2-2-2-2-2-2-------------------7--7--(7)------
A|0-0-0-0-0-0-0-0--2-2-2-2-2-2-2-2--444444444444444--7--7--(7)------
D|0-0-0-0-0-0-0-0--2-2-2-2-2-2-2-2--444444444444444--7--6--(6)------
                                    ...............
() = play second tome through


well that's it.... it's been a late night so things might be out of order ... but that's
it long, simple and aweosme I know I'm off `with a lot of the counting but the strumming
patterns ar easy to figure out...the solo is a little etchy too but it sounds good the
way I have written too
Comments