Sum 41 - My Direction Chords & Tabs

 

My Direction Chords & Tabs

Sum 41 Chords & Tabs

Version: 3 Type: Tab 0 ratings
1 star 2 stars 3 stars 4 stars 5 stars
comments

My Direction Tab

   
Drop D Tuning 
low to high D-A-D-G-B-E


Perfection is my direction
e|-----------------------------------------------------------------
B|-----------------------------------------------------------------
G|----------------------------3-----3---3--------------------------
D|---x--x--x--x----3---1--1---3-----3---3---3--3------3------1-----
A|---x--x--x--x----3---1--1---1-----1---1---3--3------3------1-----
D|---x--x--x--x----3---1--1-----------------3--3------3------1-----

Even if thats all i had. Its not like i
e|----------------------------------------------------------------
B|----------------------------------------------------------------
G|-----------------------3-----3--3-------------------------------
D|----3--------1---1-----3-----3--3-----3--3----------------------
A|----3--------1---1-----1-----1--1-----3--3----------10----------
D|----3--------1---1--------------------3--3----------10----------

Need no direction 
e|--------------------------------------------------------------
B|--------------------------------------------------------------
G|-----------------------3-----3--3-----------------------------
D|----3--------1---1-----3-----3--3-----3--3----------1---------
A|----3--------1---1-----1-----1--1-----3--3----------1---------
D|----3--------1---1--------------------3--3----------1---------

I just know that lifes no so bad

e|----------------------------------------------------------------
B|----------------------------------------------------------------
G|-----------------------3-----3--3-------------------------------
D|----3--------1---1-----3-----3--3-----3--3----------------------
A|----3--------1---1-----1-----1--1-----3--3----------10----------
D|----3--------1---1--------------------3--3----------10----------

e|----------------------------------------------------------------
B|----------------------------------------------------------------
G|----------------------------------------------------------------
D|----------------------------------------------------------------
A|------------------------------1--1------------------------------
D|----3---3---3--3---3---1----1----------------------------------- x4

e|----------------------------------------------------------
B|----------------------------------------------------------
G|---10---10--10-8---7--8-----------------------------------
D|---x----x---x--x---x--x-----------------------------------
A|---8----8---8--6---5--6-----------------------------------
D|---------------------------------------------------------- x2

last therty years...
[ Tab from: http://www.guitartabs.cc/tabs/s/sum_41/my_direction_tab_ver_3.html ]
e|----------------------------------------------------------
B|----------------------------------------------------------
G|----------------------------------------------------------
D|----------------------------------------------------------
A|----------------------------------1-1-1--1--1-------------
D|--3--3-3-3-3-3-3-3-3--1--1--1-1-1-------------------------
x2 on the secnd time play 1 on the a string once then 12

e|----------------------------------------------------------
B|----------------------------------------------------------
G|--2--3--2-2-3-2--3----------------------------------------
D|--3--2--3-3-2-3--2----------------------------------------
A|----------------------------------------------------------
D|---------------------------------------------------------- x3 

e|-------------------
B|-------------------
G|----3--------------
D|-1--3--1-----------
A|-1--1--1-----------
D|-1-----1----------- x1 

e|----------------------------------------------------------
B|----------------------------------------------------------
G|--2--3--2-2-3-2--3----------------------------------------
D|--3--2--3-3-2-3--2----------------------------------------
A|----------------------------------------------------------
D|----------------------------------------------------------x3

e|-------------------
B|-------------------
G|----3--------------
D|-1--3--1-----------
A|-1--1--1-----------
D|-1-----1----------- x1 

when will all me problems...
e|---------------------------------------------------------
B|---------------------------------------------------------
G|---------------------------------------------------------
D|---------------------------------------------------------
A|---------------------------------------------1--1--1--1--
D|--3--3---3---3---3---3---3---3-1--1--1---1--------------- x2

e|------------------------------------------------------
B|------------------------------------------------------
G|-----------------------------------------------3--3---
D|-----------------------------------------------3--3---
A|---------1---1-1--1----------------------------1--1---
D|1-1--1-1------------3--3--3--3--3-3--3---1--x---------

e|----------------------------------------------------------------
B|----------------------------------------------------------------
G|-----------------------3-----3--3-------------------------------
D|----3--------1---1-----3-----3--3-----3--3----------------------
A|----3--------1---1-----1-----1--1-----3--3----------10----------
D|----3--------1---1--------------------3--3----------10----------x2

sorry peeps its gettin late ill put the rest up some other time.
Comments