Sum 41 - My Direction Chords & Tabs

 

My Direction Chords & Tabs

Sum 41 Chords & Tabs

Version: 1 Type: Tab 0 ratings
1 star 2 stars 3 stars 4 stars 5 stars
comments

My Direction Tab

   
Name: My Direction
Artist: Sum 41
Album: Does This Look Infested?
Tabbed By: James Graham 


Tuning: Drop-D (D-A-D-G-B-E)


Intro/Chorus x 4 (play once only with muted strings)

E--------------------------------
B--------------------------------
G---------------------3-3--------    
D--x-x-x-x--3--1-1----3-3--3-3---
A--x-x-x-x--3--1-1----1-1--3-3---  After 2nd time thru do a pick slide
D--x-x-x-x--3--1-1---------3-3---

"Perfection is my direction..."

Riff 2
E----------------------
B----------------------
G----------------------
D----------------------     x4
A-----------------3-3--
D--3-3-3-3---1-1-------

Riff 3
E---------------------------------------------
B---------------------------------------------
G-10-10---10/8/7/8----------------------------
D--x--x---x/x/x/x------or---------------------   x2
A--8--8---8/6/5/6-----------8-8---8-6-5-6-----
D---------------------------------------------
Riff 2
E----------------------
B----------------------
G----------------------
D----------------------     x2
A-----------------3-3--
D--3-3-3-3---1-1-------

Use these notes but faster and more times
Listen to cd to get rhythm.

Then do a pick slide into the chorus riff x 4

Then....
Pre-Chorus

E-----------------------------
B-----------------------------
G--10-10-10-10---------3-3----
D--10-10-10-10----1-1--3-3----   
A---8--8--8--8----1-1--1-1----
D-----------------1-1---------

E-----------------------------
B-----------------------------
G--------------------3--------
D---3-3-3---------1--3--1-----  
A---3-3-3---------1--1--1-----
D---3-3-3---------1-----1-----
[ Tab from: http://www.guitartabs.cc/tabs/s/sum_41/my_direction_tab.html ]
E------------------------
B------------------------
G-----------------3-3----
D---3-3-3---1-1---3-3----  
A---3-3-3---1-1---1-1----
D---3-3-3---1-1----------

E-----------------------------
B-----------------------------
G--------------------3--------
D---3-3-3---------1--3--1-----  
A---3-3-3---------1--1--1-----
D---3-3-3---------1-----1-----



E-------------------------
B-------------------------
G------------------3-3----
D---3-3-3-3--1-1---3-3----  x 4
A---3-3-3-3--1-1---1-1----  
D---3-3-3-3--1-1----------

Intro/Chorus x 4

Bridge 


E-----------------
B-----------------
G-10-10-10--------
D-10-10-10--------
A--8--8--8--------
D-----------------


E------------------
B------------------
G--8--10--8-----8--
D--8--10--8--8--8-- 
A--6---8--6--8--6--
D------------8-----


Guitar 1   (1.19 - 1.31)
E----------------------------------------------
B----------------------------------------------
G-10-10-10-10-10-10-10-10-10-10-10-10-10-10-10-
D--x--x--x--x--x--x--x--x--x--x--x--x--x--x--x-
A--8--8--8--8--8--8--8--8--8--8--8--8--8--8--8-
D----------------------------------------------

Guitar 2   (1.19 - 1.31

E-------------------------------
B-------------------------------
G-10-10---8--10---8-----8-------
D-10-10---8--10---8-8---8-8-8---  
A--8--8---6---8---6-8---6-8-8---
D-------------------8-----8-8---


E---------------
B---------------
G---5---3--/5---
D---5---3--/5---  x2
A---3---1--/3---
D---------------


E-------------------------
B-------------------------
G---5---3---5----/3-------
D---5---3---5----/3---3---  x4
A---3---1---3----/1---3---
D---------------------3---

E-------
B-------
G--5----  This sounds like it mite be 
D--x----  played in the background of
A--3----  the above riff
D-------


Then a pick slide and play the chorus riff 4 times, and thats it!!!! 
A fairly easy 1 from the boys.

Enjoy everyone!!!

If any one has any corrections then e-mail on 
guitardude17_uk@yahoo.co.uk
Comments