Sum 41 - Mr Amsterdam Full Tab Chords & Tabs

 

Mr Amsterdam Full Tab Chords & Tabs

Sum 41 Chords & Tabs

Version: 1 Type: Tab 1 rating
1 star 2 stars 3 stars 4 stars 5 stars
comments

Mr Amsterdam Full Tab Tab

Mr. Amsterdam 
Sum 41



(the fatest song ev'a!!!!!!!) i really like this song. You should learn 
it too!! 

Gtr. 1 Riff A: intro                              
Eb|-----------------------------|------------------------------------||
Bb|-----------------------------|------------------------------------||
Gb|-----------------------------|------4-----------------------------||
Db|--2-----2-2-2-2------2-2-2-2-|-2----2----5----4---5-4-------------||
Ab|--2-----2-2-2-2------2-2-2-2-|-2----2----5----4---5-4-------------||
Eb|--0-----0-0-0-0------0-0-0-0-|-0---------3----2---3-2-------------||

Gtr. 2 (Play with Riff A once)--
Eb|-----------------------------|-------------------|
Bb|-----------------------------|-------------------|
Gb|-----------------------------|--0-----0--2---0---|
Db|----------silence------------|-----4-----------4-|
Ab|-----------------------------|-------------------|
Eb|-----------------------------|-------------------|


			--***Chord:***--
Gtr. 2
Eb|-------------------------------------------------------||
Bb|-------------------------------------------------------||
Gb|------0------------0--------2-0---0--0-2-0-------------||
Db|--2-2---4-2--2-1-1---4-2--2-----4----------4~5~4---0---||
Ab|-------------------------------------------------------||
Eb|-------------------------------------------------------||

Gtr. 1 ( maybe just bass)

Gb|----------------------------------------------||
Db|----------------------------------------------||
Ab|------------2-2-2-2-2--------------5-5-5-5-5--|| x 2times
Eb|-0-0-0-0-0-------------3-3-3-3-3--------------||
    




Gtr 2 Verse 1: (tapping supah-fast*) 2 times
Eb|-----------------------------------------------------------------------------||
Bb|-----------------------------------------------------------------------------||
Gb|-----------------------------------------------------------------------------|| 
Db|---2-2-2-2-2-2-2-2-2-2-2-2-2-2-2-2-0-2-2-2-2-2-2-2-2-2-2-2-2-2-2-2-2-0-------||
Ab|-----------------------------------------------------------------------------||
Eb|-----------------------------------------------------------------------------||
* fortsett
Gtr.  (tapping supah-fast*) "i've said this before"...  2 times
Eb|-----------------------------------------------------------------------||
Bb|-----------------------------------------------------------------------||
Gb|-----------------------------------------------------------------------||
Db|-----------------------------------------------------------------------||
Ab|----7-7-7-7-7-7-7-7-5-5-5-5-5-5-5-5-3-3-3-3-3-3-3-3--------------------||
Eb|----------------------------------------------------3-3-3-3-3-3-3-3----||

Gtr ( up and down fast) listen to the rhytm. (Play 2 times )
Eb|-----------------------------------------------------------||
Bb|-----------------------------------------------------------||
Gb|----------------7--7----(5-5-5-5-5-5)----------------------||
Db|-9-9-9-9-7-7----7--7----5-5-5-5-5-5-----7-7----------------||
Ab|-7-7-7-7-7-7----5--5----3-3-3-3-3-3-----5-5----------------||
Eb|-----------------------------------------------------------||



 * 2 verse :  just 1st time
Eb|-----------------------------------||
Bb|-----------------------------------||
Gb|-----9--7-7-7-7--5-5-5-------------|| 2* times
Db|--2--9--7-7-7-7--5-5-5--5-4--------||
Ab|--2--7--5-5-5-5--3-3-3--5-4--------||
Eb|--0---------------------3-2--------||
    

  
        1/8	  1/4       1/8       1/4
Eb|-------------------------------------------------------------------||
Bb|-------------------------------------------------------------------||
Gb|--------------------------------------------5-5-5-5---7-7-7-7------|| 
Db|-2-2-2-2-2-2---2-2---2-2-2-2-2-2---2-2------5-5-5-5---7-7-7-7------||
Ab|-2-2-2-2-2-2---2-2---2-2-2-2-2-2---2-2------3-3-3-3---5-5-5-5------||
Eb|-0-0-0-0-0-0---0-0---0-0-0-0-0-0---0-0-----------------------------||
    < wild tapping >     *2 times
[ Tab from: http://www.guitartabs.cc/tabs/s/sum_41/mr_amsterdam_full_tab_tab.html ]
Gtr ( up and down fast) listen to the rhytm. * 4 times
Eb|------------------------------------------------------------------||
Bb|------------------------------------------------------------------||
Gb|----------------7--7----(5-5-5-5-5-5)-----------------------------||
Db|-9-9-9-9-7-7----7--7----5-5-5-5-5-5-----7-7-----------------------||
Ab|-7-7-7-7-7-7----5--5----3-3-3-3-3-3-----5-5-----------------------||
Eb|------------------------------------------------------------------||

Eb|-------------------------------------------------------------------||
Bb|-------------------------------------------------------------------||
Gb|-9-9-9-9-9-9---5-5-5-5----7-7--------------------------------------||
Db|-9-9-9-9-9-9---5-5-5-5----7-7--------------------------------------||
Ab|-7-7-7-7-7-7---3-3-5-3----5-5--------------------------------------||
Eb|-------------------------------------------------------------------||
    resignation for me... a res.... * 2 times

upp to chord



Brigde :



Gtr Bass
  play with scrapy metallsound!
Ending chord 

Gb|------------------------------------|-------------------------------||
Db|-2---2---2---2--2-2-2---------------|-------------------------------||
Ab|-2---2---2---2--2-2-2---------------|-------(slide)-----------------||
Eb|-0---0---0---0--0-0-0---------------|----6--5--3--0----0-0----------||




Gtr 2 Verse 2: elgitar (Play with bass)
Eb|-------------------------------------------------------------------||
Bb|-------------------------------------------------------------------||
Gb|-------------------------------------------------------------------||
Db|-**wait**--------8--7--5--2----2-2---8--7--5--2----2-2-------------||
Ab|-----------------8--7--5--2----2-2---8--7--5--2----2-2-------------||
Eb|-----------------6--5--3--0----0-0---6--5--3--0----0-0-------------||
    continue -->

Gtr 2 Verse 2: elgitar

Eb|-------------------------------------------------------------------||
Bb|-------------------------------------------------------------------||
Gb|---------------------(drums)-------------------------------------------||
Db|--2----2----2----2--------------------------------------------------------||
Ab|--2----2----2----2--------------------------------------------------------||
Eb|--0----0----0----0--------------------------------------------------------||
    

	Gtr 1	      Gtr 2       Gtr 1         Gtr 1
Eb|----------------------------------------------------||
Bb|-x-8-8-8-8-8-8--------------x-8-8-8-8-8-8----7-7-7--||
Gb|-x-7-7-7-7-7-7--8--7--5--2--x-7-7-7-7-7-7----6-6-6--||
Db|-x-5-5-5-5-5-5--8--7--5--2--x-5-5-5-5-5-5----4-4-4--|| 2 times
Ab|----------------6--5--3--0--------------------------||
Eb|----------------------------------------------------||
    

 Bass
Gb|-------------------------------------------------------------------||
Db|-------------------------------------------------------------------||
Ab|-------------------------------------------------------------------||
Eb|-x-0-0-0-0-0-0-6-5-3-x-0-0-0-0-0-0-2-2-2---------------------------||


  Gtr 2 (upp and town) *fast**
Eb|-------------------------------------------------------------------||
Bb|-------------------------------------------------------------------||
Gb|----------------7-7-----------------7-8----------------------------||
Db|-2-2-2-2-2-2-2--7-7--2-2-2-2-2-2-2--7-8----------------------------||
Ab|-2-2-2-2-2-2-2--5-5--2-2-2-2-2-2-2--5-6----------------------------||
Eb|-0-0-0-0-0-0-0-------0-0-0-0-0-0-0---------------------------------||



upp again!! :p (play chours 2 times then to "ending chord








Ending chord 
Eb|-------------------------------------------------------------------||
Bb|-------------------------------------------------------------------||
Gb|-------------------------------------------------------------------||
Db|-2---2---2---2--2-2-2-3--------------------------------------------||
Ab|-2---2---2---2--2-2-2-3--------------------------------------------||
Eb|-0---0---0---0--0-0-0-1--------------------------------------------||




where is it standing "Gtr" and such things...it's maybe 
..do not care about witch guitar it is... you see it if you play it

this is my first tabulatur i've ever written. I'ts not perfect
but if you've heard the song  from before you'll find out easy.. ;)

comment : sk8erboy__2003@hotmail.com

GO SUM 41!!!!!!! WHHOOOAAA!!!! :D
Comments