Sum 41 - Motivation Chords & Tabs

 

Motivation Chords & Tabs

Sum 41 Chords & Tabs

Version: 7 Type: Tab 0 ratings
1 star 2 stars 3 stars 4 stars 5 stars
comments

Motivation Tab

well this is an easy song:

Intro
e:--------------------------------------
B:--------------------------------------
G:--------------------------------------
D:-2-2-------2-2-------2-2-------2-2-pick scratch
A:-2-2-------2-2-------2-2-------2-2----
E:-0-0-------0-0-------0-0-------0-0----

preverse 2(x)
e:----------------------------------------------------------
B:----------------------------------------------------------
G:----------------------------------------------------------
D:-2-2-2--6-7-7-7--2-2-2--6-7-7-7--2-2-2--6-7-7-7--9-9-9-6-7
A:-2-2-2--6-7-7-7--2-2-2--6-7-7-7--2-2-2--6-7-7-7--9-9-9-6-7
E:-0-0-0--4-5-5-5--0-0-0--4-5-5-5--0-0-0--4-5-5-5--7-7-7-4-5


verse 2(x) "whats the difference..."
e:------------------------------------
B:------------------------------------
G:------------------------------------
D:-x-x-2--x-x-6--x-x-7--x-x-9---------
A:-x-x-2--x-x-6--x-x-7--x-x-9---------
E:-x-x-0--x-x-4--x-x-5--x-x-7---------

little guitar riff before chorus 1(x)
e:--------------------------
B:--------------------------
G:--------------------------
D:--------------------------
A:-----------9--------------
E:-0-4-5-7-9----------------

chorus "motivation such an aggrivation..."
e:--------------------------------------
B:--------------------------------------
G:-9-9-9-9-9-9-9-9----------------------
D:-9-9-9-9-9-9-9-9-9-9-9-9-9-9-9-9------
A:-7-7-7-7-7-7-7-7-9-9-9-9-9-9-9-9------
E:-----------------7-7-7-7-7-7-7-7------

"Inspirations getting hard to fake them..."
e:---------------------------------------
B:-9-9-9-9-9-9-9-9-----------------------
G:-9-9-9-9-9-9-9-9-----------------------
D:-9-9-9-9-9-9-9-9-7-7-7-7-9-9-9-9-------
A:-7-7-7-7-7-7-7-7-7-7-7-7-9-9-9-9-------
E:-----------------5-5-5-5-7-7-7-7-------


"situation never what you want it to be..."
e:-----------------------------
B:-----------------------------
G:-9-let ring------------------
D:-9-------------7-7-7-7-7-7---
A:-7-------------7-7-7-7-7-7---
E:---------------5-5-5-5-5-5---

preverse 2(x)
e:----------------------------------------------------------
B:----------------------------------------------------------
G:----------------------------------------------------------
D:-2-2-2--6-7-7-7--2-2-2--6-7-7-7--2-2-2--6-7-7-7--9-9-9-6-7
A:-2-2-2--6-7-7-7--2-2-2--6-7-7-7--2-2-2--6-7-7-7--9-9-9-6-7
E:-0-0-0--4-5-5-5--0-0-0--4-5-5-5--0-0-0--4-5-5-5--7-7-7-4-5



verse "whats the point of never making mistakes..."
e:------------------------------------
B:------------------------------------
G:------------------------------------
D:-x-x-2--x-x-6--x-x-7--x-x-9---------
A:-x-x-2--x-x-6--x-x-7--x-x-9---------
E:-x-x-0--x-x-4--x-x-5--x-x-7---------


little guitar riff before chorus 1(x)
e:--------------------------
B:--------------------------
G:--------------------------
D:--------------------------
A:-----------9--------------
E:-0-4-5-7-9----------------



chorus "motivation such an aggrivation..."
e:--------------------------------------
B:--------------------------------------
G:-9-9-9-9-9-9-9-9----------------------
D:-9-9-9-9-9-9-9-9-9-9-9-9-9-9-9-9------
A:-7-7-7-7-7-7-7-7-9-9-9-9-9-9-9-9------
E:-----------------7-7-7-7-7-7-7-7------

"Inspirations getting hard to fake them..."
e:---------------------------------------
B:-9-9-9-9-9-9-9-9-----------------------
G:-9-9-9-9-9-9-9-9-----------------------
D:-9-9-9-9-9-9-9-9-7-7-7-7-9-9-9-9-------
A:-7-7-7-7-7-7-7-7-7-7-7-7-9-9-9-9-------
E:-----------------5-5-5-5-7-7-7-7-------

[ Tab from: http://www.guitartabs.cc/tabs/s/sum_41/motivation_tab_ver_7.html ]
"situation never what you want it..."
e:-----------------------------
B:-----------------------------
G:-9-let ring------------------
D:-9-------------7-7-7-7-7-7---
A:-7-------------7-7-7-7-7-7---
E:---------------5-5-5-5-5-5---


3(x)
"nothings new, everythings the same..."
e:------------------------------------|------------------
B:------------------------------------|------------------
G:------------------------------------|------------9-9-9-
D:-2-2--9-9-9--7-7-7-7-7-7------------|--9-9-9-9-9-9-9-9-
A:-2-2--9-9-9--7-7-7-7-7-7------------|--9-9-9-9-9-7-7-7-
E:-0-0--7-7-7--5-5-5-5-5-5------------|--7-7-7-7-7-------


solo thingy 4(x)
e:---------------------------------
B:---------------------------------
G:---------------------------------
D:-2-2--------------7-7-7-9-9-9----
A:-2-2-5-4-2--------7-7-7-9-9-9----
E:-0-0-------5-4-0--5-5-5-7-7-7----


"cant depend on doubt until the end..."
e:--------------------------------------------------------
B:-4h5-5-5-5-5-5-4h5-5-5-5-5-4h5-5-5-5-5-5-5-4h5-5-5-5-5--
G:--------------------------------------------------------
D:--------------------------------------------------------
A:--------------------------------------------------------
E:--------------------------------------------------------

e:-----------------------------------------------
B:-4h5p4-2-2--4h5-5-5-4h5-5-5-4h5-4h5-4h5-4h5----
G:-----------------------------------------------
D:-----------------------------------------------
A:-----------------------------------------------
E:-----------------------------------------------


play that 2 times, then 2nd guitar comes in but keep playing this however many times.
e:---------------------------
B:---------------------------
G:-4-4-----------------------
D:-4-4--4-4--7-7--2-2--------
A:-2-2--4-4--7-7--2-2--------
E:------2-2--5-5--0-0--------


2nd guitar part palm muted 4(x) then 2 more times not palm muted
e:---------------------------------
B:-5-5p4h5--4-5-4-5p4-5p4-5-5p4-5--
G:---------------------------------
D:---------------------------------
A:---------------------------------
E:---------------------------------
   * * * *  * * * * * * * * * * *

after that chorus again with different chords
"motivation such an..."       | "accusations dont know..."  
e:----------------------------|-----------------------------
B:----------------------------|-----------------------------
G:----------------------------|-----------------------------
D:-2-2-2--9-9-9--6-6-6--7-7-7-|-2-2-2--6-6-6--7-7-7--9-9-9--
A:-2-2-2--9-9-9--6-6-6--7-7-7-|-2-2-2--6-6-6--7-7-7--9-9-9--
E:-0-0-0--7-7-7--4-4-4--5-5-5-|-0-0-0--4-4-4--5-5-5--7-7-7--

"situation never what you want it to be..."
e:--------------------------------
B:-5p4-5p4-5p4-5p4-5p4-5p4-5p4----
G:--------------------------------
D:--------------------------------
A:--------------------------------
E:--------------------------------


preverse 2(x)
e:----------------------------------------------------------
B:----------------------------------------------------------
G:----------------------------------------------------------
D:-2-2-2--6-7-7-7--2-2-2--6-7-7-7--2-2-2--6-7-7-7--9-9-9-6-7
A:-2-2-2--6-7-7-7--2-2-2--6-7-7-7--2-2-2--6-7-7-7--9-9-9-6-7
E:-0-0-0--4-5-5-5--0-0-0--4-5-5-5--0-0-0--4-5-5-5--7-7-7-4-5


end on
e:----
B:----
G:----
D:-2--
A:-2--
E:-0--

thats it and its the only one that is probably right here and that has the whole song. 
email me for questions or comments: bmxfreak48@hotmail.com
by: NeoMan123
Comments