Sum 41 - Motivation Chords & Tabs

 

Motivation Chords & Tabs

Sum 41 Chords & Tabs

Version: 5 Type: Tab 0 ratings
1 star 2 stars 3 stars 4 stars 5 stars
comments

Motivation Tab

this is the guitar tab for sum41's new single

Intro Part 1 (Play 1x)
--------------------------------------------------
--------------------------------------------------
--------------------------( p i c k   s l i d e )-
----22----22----22----22--------------------------
----22----22----22----22--------------------------
----00----00----00----00--------------------------

Intro Part 2 (Play 2x)
-----------------------------------------------------
-----------------------------------------------------
-----------------------------------------------------
222-6--7-6----222-6--7-6----222-6--7-6----999--6-7-6-
222-6--7-6----222-6--7-6----222-6--7-6----999--6-7-6-
000-4--5-4----000-4--5-4----000-4--5-4----777--4-5-4-

Verse (Play 4x)   
-----------------------------------------------------
-----------------------------------------------------
-----------------------------------------------------
[2][2]2--[6][6]6--[7][7]7--[9][9]9-------------------
[2][2]2--[6][6]6--[7][7]7--[9][9]9-------------------
[0][0]0--[4][4]4--[5][5]5--[7][7]7-------------------

Bridge (Play 1x)  
------------
------------
----66--88--
99--66--88--
99--44--66--
77----------
[ Tab from: http://www.guitartabs.cc/tabs/s/sum_41/motivation_tab_ver_5.html ]
Chorus (Play 1x)  
---------------------------------------------------------------
---------------------------------------------------------------
999999999999--------------999999999999---------------666666--9-
999999999999-999999999999-999999999999-777777-999999-666666--9-
777777777777-999999999999-777777777777-777777-999999-444444--7-
-------------777777777777--------------555555-777777-----------

Then Play the Intro Part II.

then the Verse again.   

and then the Chorus again. 

Interlude 1 (Play 1x)  
------------------------------------------------------
------------------------------------------------------
----44--22222------44--22222-----------4444444--------
22--44--22222--22--44--22222--2222222--4444444--------
22--22--00000--22--22--00000--2222222--2222222--------
00-------------00-------------0000000-----------------

Interlude 2 (Play 4x)
-------------------
-------------------
-------------------
22-0----------7-99-
22--4-2-0-----7-99-
00--------4-0-5-77-

Interlude 3 (Play 1x)    
------------------------------------------
------------------------------------------
9-99-96-62----9-99-96-62----9-99-96-62----
9-99-96-62----9-99-96-62----9-99-96-62----
7-76-64-40----7-76-64-40----7-76-64-40----
------------------------------------------

Interlude 4 (Play 9x)
----------------
----------------
----44------22--
22--44--44--22--
22--22--44--00--
00------22------

Interlude 5 
----------------------------------------------------------
----------------------------------------------------------
--------22--44------44------22---------22222222--44444444-
22--44--22--44--22--44--44--22--22--44-22222222--44444444-
22--44--00--22--22--22--44--00--22--44-00000000--22222222-
00--22----------00------22------00--22--------------------

finish the song with Intro Part 2.
Comments