Sum 41 - Motivation Chords & Tabs

 

Motivation Chords & Tabs

Sum 41 Chords & Tabs

Version: 4 Type: Tab 0 ratings
1 star 2 stars 3 stars 4 stars 5 stars
comments

Motivation Tab

#----------------------------------PLEASE NOTE--------------------------------#
#This file is the author's own work and represents their interpretation of the#
#song. You may only use this file for private study, scholarship, or research.#
#-----------------------------------------------------------------------------#
#-- File created with Instab - http://www.pconline.com/~smcarey/instab.html --#
#-----------------------------------------------------------------------------#

Author/Artist: Sum 41
Title: Motivation
Album: All Killer No Filler
Transcribed by: Daniel Bley
Email: d_man15000@yahoo.com
URL: www.geocities.com/good_fellas69
Tuning: Standard - EADGBE

This is probably not accurate, I know.  It certainly is
easier though.  And I'm not sure on the solo, but I think
I'm pretty close.

x = palm mute
~ = let ring
\ = slide down

(note: It distorted, just incase you didn't already know that)

Intro:
------------------------
------------------------
------------------------
-2-2--2-2--2-2--2-2-9\--
-2-2--2-2--2-2--2-2-9\--
-0-0--0-0--0-0--0-0-7\--

Pre Verse:
--------------------------------------------------------
--------------------------------------------------------
-------2--2-0-------2--2-0-------2--2-0-4-4-4-0-2--2-0--
-2-2-0-2--2-0-2-2-0-2--2-0-2-2-0-2--2-0-4-4-4-0-2--2-0--
-2-2-0-0--0-0-2-2-0-0--0-0-2-2-0-0--0-0-2-2-2-0-0--0-0--
-0-0-0--------0-0-0--------0-0-0------------------------

Verse: (Palm muted throughout)
-------------------------|------------------
-------------------------|------------------
-------2-2-2-------------|------------------
-2-2-2-2-2-2-7-7-7-9-9-9-|------------------
-2-2-2-0-0-0-7-7-7-9-9-9-|-4-4-6-6-7-7-9-9--
-0-0-0-------5-5-5-7-7-7-|------------------
 x x   x x   x x   x x
[ Tab from: http://www.guitartabs.cc/tabs/s/sum_41/motivation_tab_ver_4.html ]
Chorus:
--------------------------------------------------------------------------------
--------------------------------------------------------------------------------
-9-9-9-9--9-9-9-9--------------------9-9-9-9--9-9-9-9---------------------------
-9-9-9-9--9-9-9-9--9-9-9-9--9-9-9-9--9-9-9-9--9-9-9-9--7-7-7-7--9-9-9-9--7~---9-
-7-7-7-7--7-7-7-7--9-9-9-9--9-9-9-9--7-7-7-7--7-7-7-7--7-7-7-7--9-9-9-9--7~---9-
-------------------7-7-7-7--7-7-7-7--------------------5-5-5-5--7-7-7-7--5~---7-

"Nothings New..."
------------------------------
------------------------------
--------4-4-------------------
-2--2-2-4-4-7--7-7-7-7-7-7-7--
-2--2-2-2-2-7--7-7-7-7-7-7-7--
-0--0-0-----5--5-5-5-5-5-5-5--
                                                                              
Solo:
-----------------------------
-----------------------------
-----------------------------
-2-2-------------------------
-2-2-5-4-2-0-0---------------
-0-0----------4-4-5-6-7-7-7--

"Can't Depend..." (Guitar 1)

---------------------------------
---------------------------------
-6-----9--9-9--6-----------------
-6---9-9--9-9--6--7--9--9-9-9-9--
-4---9-7--7-7--4--7--9--9-9-9-9--
-----7------------5--7--7-7-7-7--

(Guitar 2)
-------
-4--5--
-------
-------
-------
-------

Not Sure What to call this, but I think you can figure out where it goes:
(Guitar 1)          (Guitar 2 [palm muted])
--------------------|--------------------------
--------------------|-5-5-5-5-4-5-5-5-5-4-5-4--
------4-4-----------|--------------------------
-2-2--4-4--4-4--7-7-|--------------------------
-2-2--2-2--4-4--7-7-|--------------------------
-0-0-------2-2--5-5-|--------------------------
                      x x x x x x x x x x x x

Thats it. Again, I know it probably is not entirely accurate.  It is an easy way
to play this awsome song. And just listen to the song for the struming and song
structure.
Comments