Sum 41 - Motivation Chords & Tabs

 

Motivation Chords & Tabs

Sum 41 Chords & Tabs

Version: 13 Type: Tab 0 ratings
1 star 2 stars 3 stars 4 stars 5 stars
comments

Motivation Tab

Sum 41 Motivation
From the album All Killer No Filler
Track 5
Tabbed by Liam
Email: guitar_rocker_47@hotmail.com
Tuning: Standard

Intro
e|------------------------------------------------------------------------------|
B|---------------------------------0--------------------------------------------|
G|---------------------------------0--------------------------------------------|
D|--2-2---2-2---2-2--2-2-----------0--------------------------------------------|
A|--2-2---2-2---2-2--2-2-----------0--------------------------------------------|
E|--0-0---0-0---0-0--0-2---11\4-------------------------------------------------|

Intro part 2 (I know now this bit is wrong cos I've seen the tab book for this, but
the way ive tabbed it, it sounds okay. If any one does want the real version Email me.
e|----------------|-----------------|-----------------|-------------------------|
B|----------------|-----------------|-----------------|-------------------------|
G|----------------|-----------------|-----------------|-------------------------|
D|-2-2--6-6--7-6--|--2-2--6-6--7-6--|--2-2--6-6--7-6--|--9- 9--6-6--7-6----------|
A|-2-2--6-6--7-6--|--2-2--6-6--7-6--|--2-2--6-6--7-6--|--9-9--6-6--7-6----------|
E|-0-0--4-4--5-4--|--0-0--4-4--5-4--|--0-0--4-4--5-4--|--7-7--4-4--5-4----------|

e|----------------|-----------------|-----------------|-------------------------|
B|----------------|-----------------|-----------------|-------------------------|
G|----------------|-----------------|-----------------|-------------------------|
D|-2-2--6-6--7-6--|--2-2--6-6--7-6--|--2-2--6-6--7-6--|--9-9--6-6--7-6----------|
A|-2-2--6-6--7-6--|--2-2--6-6--7-6--|--2-2--6-6--7-6--|--9-9--6-6--7-6----------|
E|-0-0--4-4--5-4--|--0-0--4-4--5-4--|--0-0--4-4--5-4--|--7-7--4-4--5-4----------|

Verse
e|-------------------------------|------------------------------|---------------|
B|-------------------------------|------------------------------|---------------|
G|-------------------------------|------------------------------|---------------|
D|-------2------6------7------9--|------2------6------7------9--|------2------6-|
A|-------2------6------7------9--|------2------6------7------9--|------2------6-|
E|--0-0-----4-4----5-5----7-7----|--0-0----4-4----5-5----7-7----|--0-0----4-4---|
PM  ***     ***    ***    ***       ***    ***    ***    ***       ***    ***

e|---------------|--------------------------------------------------------------|
B|---------------|--------------------------------------------------------------|
G|---------------|--------------------------------------------------------------|
D|-----7------9--|------2-------6-----------------------------------------------|
A|-----7------9--|------2-------6----4-4-6-6-7-7-9-9----------------------------|
E|-5-5----7-7----|--0-0-----4-4-------------------------------------------------|
PM ***    ***       ***     ***

Chorus
e|------------------------------------------------------------------------------|
B|------------------------------------------------------------------------------|
G|-9--9--9--9-9-9--9-9--9-9-9--------------------------------9--9--9--9-9-9--9--|
D|-9--9--9--9-9-9--9-9--9-9-9---9--9--9--9-9-9--9-9--9-9-9---9--9--9--9-9-9--9--|
A|-7--7--7--7-7-7--7-7--7-7-7---9--9--9--9-9-9--9-9--9-9-9---7--7--7--7-7-7--7--|
E|------------------------------7--7--7--7-7-7--7-7--7-7-7----------------------|

e|------------------------------------------------------------------------------|
B|------------------------------------------------------------------------------|
G|-9--9-9-9---------------------------------------------------------------------|
D|-9--9-9-9---7--7--7--7-7-7---9--9--9-9-9--------------------------------------|
A|-7--7-7-7---7--7--7--7-7-7---9--9--9-9-9--------------------------------------|
E|------------5--5--5--5-5-5---7--7--7-7-7--------------------------------------|

Riff 1
e|------------------------------------------------------------------------------|
B|------------------------------------------------------------------------------|
G|------------------------------------------------------------------------------|
D|-----6~~-----7~~--------------------------------------------------------------|
A|-----6~~-----7~~--------------------------------------------------------------|
E|-----4~~-----5~~--------------------------------------------------------------|

Riff 2
e|------------------------------------------------------------------------------|
B|------------------------------------------------------------------------------|
G|------------------------------------------------------------------------------|
D|-2--2-2---9-9-9-9---2--2-2---9-9-9-9---2--2-2---9-9-9-9-----4-4-4-4-4-4-4-4---|
A|-2--2-2---9-9-9-9---2--2-2---9-9-9-9---2--2-2---9-9-9-9-----4-4-4-4-4-4-4-4---|
E|-0--0-0---7-7-7-7---0--0-0---7-7-7-7---0--0-0---7-7-7-7-----2-2-2-2-2-2-2-2---|
[ Tab from: http://www.guitartabs.cc/tabs/s/sum_41/motivation_tab_ver_13.html ]
e|------------------------------------------------------------------------------|
B|------------------------------------------------------------------------------|
G|------------------------------------------------------------------------------|
D|-7-7-7-7-7-7-7-7--------------------------------------------------------------|
A|-7-7-7-7-7-7-7-7--------------------------------------------------------------|
E|-5-5-5-5-5-5-5-5--------------------------------------------------------------|

Interlude
e|--------------------------------------|---------------------------------------|
B|(just one guitar - no bass or drums)--|--(with full band from now on)---------|
G|--------------------------------------|---------------------------------------|
D|-2-2-------------x--6-x--7-7---9-9-9--|--2-2------------x-6-x--7-7--9-9-9-9---|
A|-2-2---5-4-2-0---x--6-x--7-7---9-9-9--|--2-2---5-4-2-0--x-6-x--7-7--9-9-9-9---|
E|-0-0-------------x--4-x--5-5---7-7-7--|--0-0------------x-4-x--5-5--7-7-7-7---|

e|------------------------------------------------------------------------------|
B|------------------------------------------------------------------------------|
G|------------------------------------------------------------------------------|
D|-2-2------------x-6-x--7-7--9-9-9-9----2-2------------x-6-x--7-7--9-9-9-9-----|
A|-2-2---5-4-2-0--x-6-x--7-7--9-9-9-9----2-2---5-4-2-0--x-6-x--7-7--9-9-9-9-----|
E|-0-0------------x-4-x--5-5--7-7-7-7----0-0------------x-4-x--5-5--7-7-7-7-----|

Bridge  
e|--0----0----0-----0----0----0-----0----0----0-----0----0----0----0---0---0--0-|
B|-/5----4----2----/5----4----2----/7----5----4----/5----4----2---/5---4---2-/5-|
G|------------------------------------------------------------------------------|
D|------------------------------------------------------------------------------|
A|------------------------------------------------------------------------------|
E|------------------------------------------------------------------------------|

e|-0--0---0--0--0--0--0--0--0--0--0--0--0--0--0---------------------------------|
b|-4--2--/4--2--0--5--4--5--4--5--4--7--5--4--5---------------------------------|
G|------------------------------------------------------------------------------|
D|------------------------------------------------------------------------------|
A|------------------------------------------------------------------------------|
E|------------------------------------------------------------------------------|

Riff 3
e|-------------------|-------------------|-------------------|------------------|
B|-------------------|-------------------|-------------------|------------------|
G|------4-4------2-2-|------4-4------2-2-|------4-4------2-2-|------4-4-----2-2-|
D|-2-2--4-4-4-4--2-2-|-2-2--4-4-4-4--2-2-|-2-2--4-4-4-4--2-2-|-2-2--4-4-4-42-2-|
A|-2-2--2-2-4-4--0-0-|-2-2--2-2-4-4--0-0-|-2-2--2-2-4-4--0-0-|-2-2--2-2-4-40-0-|
E|-0-0------2-2------|-0-0------2-2------|-0-0------2-2------|-0-0------2-2-----|

e|-------------------|-------------------|-------------------|------------------|
B|-------------------|-------------------|-------------------|------------------|
G|------4-4------2-2-|------4-4------2-2-|------4-4------2-2-|------4-4-----2-2-|
D|-2-2--4-4-4-4--2-2-|-2-2--4-4-4-4--2-2-|-2-2--4-4-4-4--2-2-|-2-2--4-4-4-42-2-|
A|-2-2--2-2-4-4--0-0-|-2-2--2-2-4-4--0-0-|-2-2--2-2-4-4--0-0-|-2-2--2-2-4-40-0-|
E|-0-0------2-2------|-0-0------2-2------|-0-0------2-2------|-0-0------2-2-----|

e|------------------------------------------------------------------------------|
B|------------------------------------------------------------------------------|
G|------4-4------2-2------------------------------------------------------------|
D|-2-2--4-4-4-4--2-2------------------------------------------------------------|
A|-2-2--2-2-4-4--0-0------------------------------------------------------------|
E|-0-0------2-2-----------------------------------------------------------------|

Guitar 2 plays this while guitar 1 has played two bars of riff 3
e|--------------|---------------------|----------------|------------------------|
B|9--9--9--9--7-|-9---9---9---7--9--7-|-9--9--9--9---7-|--9---9--9--7---9---7---|
G|9--9--9--9--8-|-9---9---9---8--9--8-|-9--9--9--9---8-|--9---9--9--8---9---8---|
D|--------------|---------------------|----------------|------------------------|
A|--------------|---------------------|----------------|------------------------|
E|--------------|---------------------|----------------|------------------------|

Riff 4
e|-------------------|-------------------|-------------------|------------------|
B|-------------------|-------------------|-------------------|------------------|
G|----4-4-------2-2--|----4-4-------2-2--|----4-4-------2-2--|------------------|
D|-2--4-4--4-4--2-2--|-2--4-4--4-4--2-2--|-2--4-4--4-4--2-2--|-7-7-7-7-7-7-7-7--|
A|-2--2-2--4-4--0-0--|-2--2-2--4-4--0-0--|-2--2-2--4-4--0-0--|-7-7-7-7-7-7-7-7--|
E|-0-------2-2-------|-0-------2-2-------|-0-------2-2-------|-5-5-5-5-5-5-5-5--|

e|------------------------------------------------------------------------------|
B|------------------------------------------------------------------------------|
G|------------------------------------------------------------------------------|
D|-9-9-9-9-9-9-9-9-9------------------------------------------------------------|
A|-9-9-9-9-9-9-9-9-9------------------------------------------------------------|
E|-7-7-7-7-7-7-7-7-7------------------------------------------------------------|

Order

Intro
Intro Part 2.
Verse
Chorus
Riff 1
Intro Part 2.
Verse
Chorus
Riff 1
Riff 2
Interlude
Bridge
Riff 3
Riff 4
Intro Part 2.

There it is one of the greatest Punk Songs!
Rate this, if you like it, THANKS!
Comments