Sum 41 - Motivation Chords & Tabs

 

Motivation Chords & Tabs

Sum 41 Chords & Tabs

Version: 11 Type: Tab 0 ratings
1 star 2 stars 3 stars 4 stars 5 stars
comments

Motivation Tab

   
 Artist:Sum 41
 Song:Motivation
 Album:All Killer No Filler
 Tuning:Nat. Tuning (E-A-D-G-B-e)


             This is There Wicked New Single
                           ";Motivation;"

Intro
e-----------------------------------------------------------|
B-----------------------------------------------------------|
G-----------------------------------------------------------|
D--2-2---2-2---2-2---2-2------------------------------------|
A--2-2---2-2---2-2---2-2---7\-------------------------------|
E--0-0---0-0---0-0---0-0---7\-------------------------------|

Riff 1 x3             End on This  ///////Play All x3
e-------------------|----------------------------------------|
B-------------------|----------------------------------------|
G-------------------|----------------------------------------|
D--2-2--------------|----------------------------------------|
A--2-2--6-6--7-6----|--9-9--6-6--7-6-------------------------|
E--0-0--4-4--5-4----|--7-7--4-4--5-4-------------------------|

Verse x3
e-----------------------------------------------------------|
B-----------------------------------------------------------|
G-----------------------------------------------------------|
D-----------------------------------------------------------|
A--------2--------6--------7--------9-----------------------|
E--0--0--0--4--4--4--5--5--5--7--7--7-----------------------|
"What's the difference..."

Then this
e-----------------------------------------------------------|
B-----------------------------------------------------------|
G-----------------------------------------------------------|
D--------2--------6-----------------------------------------|
A--------2--------6------------4-4-6-6-7-7-9-9--------------|
E--0--0--0--4--4--4-----------------------------------------|


Chorus
e-----------------------------------------------------------|
B-----------------------------------------------------------|
G--9--9--9--9-9-9--9--9--9-9--------------------------------|
D--9--9--9--9-9-9--9--9--9-9-9--9--9--9-9-9--9--9--9-9------|
A--7--7--7--7-7-7--7--7--7-7-9--9--9--9-9-9--9--9--9-9------|
E----------------------------7--7--7--7-7-7--7--7--7-7------|
"Motivation such an aggrevation..."


e------------------------------------------------------------|
B------------------------------------------------------------|
G--9--9--9--9-9-9--9--9--9-9---------------------------------|
D--9--9--9--9-9-9--9--9--9-9-9--9--9--9-9-9--9--9--9-9--9--9-|
A--7--7--7--7-7-7--7--7--7-7-9--9--9--9-9-9--9--9--9-9--9--9-|
E----------------------------7--7--7--7-7-7--7--7--7-7--7--7-|
"Consentration......"
[ Tab from: http://www.guitartabs.cc/tabs/s/sum_41/motivation_tab_ver_11.html ]
Fill 1
e-----------------------------------------------------------|
B-----------------------------------------------------------|
G-----------------------------------------------------------|
D-----------------------------------------------------------|
A-----------6--------------7--------------------------------|
E-----------4--------------5--------------------------------|
"Never What you Wanted"


Post-Chorus   x3                      End on This
e------------------------------------|----------------------|
B------------------------------------|----------------------|
G------------------------------------|----------------------|
D--2--2-2--9-9-9-9--7-7-7-7-7-7-7-7--|--4-------7-----------|
A--2--2-2--9-9-9-9--7-7-7-7-7-7-7-7--|--4-(x8)--7-(x8)------|
E--0--0-0--7-7-7-7--5-5-5-5-5-5-5-5--|--2-------5-----------|
("Nothing's new...")

Riff 2 x4
e-----------------------------------------------------------|
B-----------------------------------------------------------|
G-----------------------------------------------------------|
D--2-2------------------------------------------------------|
A--2-2--5-4-2-0---------------------------------------------|
E--0-0----------4-0--5--5-5---7--7-7------------------------|

Bridge
e-----------------------------------------------------------|
B-----------------------------------------------------------|
G--6-------9----9--9--6-------------------------------------|
D--6----9--9----9--9--6---7---9---9--9-9-9-9----------------|
A--4----9--7----7--7--4---7---9---9--9-9-9-9----------------|
E-------7-----------------5---7---7--7-7-7-7----------------|
("Can't pretend on doubt...")
                         P.M................................
Riff 3 Gtr.1 x8          Riff 3A x6 Gtr.2
e------------------------|----------------------------------|
B------------------------|--5--5--5--5-4--5--5--5--5-4--5-4-|
G-------4-4--------------|----------------------------------|
D--2-2--4-4--4-4--7-7----|----------------------------------|
A--2-2--2-2--4-4--7-7----|----------------------------------|
E--0-0-------2-2--5-5----|----------------------------------|

Riff 4 Gtr. 1 x3        End on This
e---------------------|-------------------------------------|
B---------------------|-------------------------------------|
G-----4-4-------------|-------------------------------------|
D--2--4-4--4-4--7-7---|--7-7-7-7-7-7-7-7--9-9-9-9-9-9-9-9---|
A--2--2-2--4-4--7-7---|--7-7-7-7-7-7-7-7--9-9-9-9-9-9-9-9---|
E--0-------2-2--5-5---|--5-5-5-5-5-5-5-5--7-7-7-7-7-7-7-7---|

Song Order:

Gtr. 1          Gtr.2

Intro           N/H
Riff 1          N/H
Verse           N/H
Chorus          N/H
Fill 1          N/H
Riff 1          N/H
Verse           N/H
Chorus          N/H
Fill 1          N/H
Post Chorus     N/H
Riff 2          N/H
Bridge          N/H
Riff 3        Riff 3A
Riff 4        Riff 3A
Riff 1          N/H
Comments