Sum 41 - Motivation Chords & Tabs

 

Motivation Chords & Tabs

Sum 41 Chords & Tabs

Version: 1 Type: Tab 0 ratings
1 star 2 stars 3 stars 4 stars 5 stars
comments

Motivation Tab

#----------------------------------PLEASE NOTE--------------------------------#
#This file is the author's own work and represents their interpretation of the#
#song. You may only use this file for private study, scholarship, or research.#
#-----------------------------------------------------------------------------#
#-- File created with Instab - http://www.pconline.com/~smcarey/instab.html --#
#-----------------------------------------------------------------------------#

Author/Artist: Sum 41
Title: Motivation
Album: All Killer No Filler
Transcribed by: huskers420
Email: fto2345821@aol.com 

Standard Tuning

-|------------------------------|---------------------------------------------
-|----------------------------0-|---------------------------------------------
-|----------------------------0-|---------------------------------------------
-|-2-2---2-2---2-2---2-2------0-|-2-2-2-6-7--7-6--2-2-2--6-7--7-6--2-2-2--6-7-
-|-2-2---2-2---2-2---2-2------0-|-2-2-2-6-7--7-6--2-2-2--6-7--7-6--2-2-2--6-7-
-|-0-0---0-0---0-0---0-0---x\---|-0-0-0-4-5--5-4--0-0-0--4-5--5-4--0-0-0--4-5-
 Intro                                                                        

-|----------------------|-----------------------------------------------------
-|----------------------|-----------------------------------------------------
-|----------------------|-----------------------------------------------------
-|-7-6--9-9-9--6-7--7-6-|-----2--------6--------7--------9--------------------
-|-7-6--9-9-9--6-7--7-6-|-----2--------6--------7--------9--------------------
-|-5-4--7-7-7--4-5--5-4-|-0-0-0--0-4-4-4--4-5-5-5--5-7-7-7--------------------
                      verse, pm  -----    -----    -----      2x              

-|----------------------------------------------------------------------------
-|----------------------------------------------------------------------------
-|---------------------6-------4----------------------------------------------
-|-----2-------6-------6-------4-------2-------6---------------4-4------------
-|-----2-------6---4-4-4-4-6-6-6-------2-------6---4-4-6-6-7-7-6-6------------
-|-0-0-0-0-4-4-4-0---------------0-0-0-0-0-4-4-4-0-5-5-7-7-9-9----------------
   ---   -----   -----   -----   -----   -----                                

-|----------------------------------------------------------------------------
-|-9-9-9-9-9-9-9-9-9-9---------------------9-9-9-9-9-9-9-9-9-9----------------
-|-9-9-9-9-9-9-9-9-9-9-8-8-8-8-8-8-8-8-8-8-9-9-9-9-9-9-9-9-9-9-6-6-6-6-6-8-8--
-|-9-9-9-9-9-9-9-9-9-9-9-9-9-9-9-9-9-9-9-9-9-9-9-9-9-9-9-9-9-9-7-7-7-7-7-9-9--
-|-7-7-7-7-7-7-7-7-7-7-9-9-9-9-9-9-9-9-9-9-7-7-7-7-7-7-7-7-7-7-7-7-7-7-7-9-9--
-|---------------------7-7-7-7-7-7-7-7-7-7---------------------5-5-5-5-5-7-7--
 Chorus                                                                       
[ Tab from: http://www.guitartabs.cc/tabs/s/sum_41/motivation_tab.html ]
-|----------------------------------------------------------------------------
-|----------------------------------------------------------------------------
-|-8-8------------------------------------------------------------------------
-|-9-9---7---9-9-9-9-9-9-9-9--------------------------------------------------
-|-9-9---7---9-9-9-9-9-9-9-9--------------------------------------------------
-|-7-7-0-5---7-7-7-7-7-7-7-7-0------------------------------------------------
                                                                              

-|----------------------------------------------------------------------------
-|----------------------------------------------------------------------------
-|-----------------------------------------------2-x-4-4-4-4------------------
-|-2-2---------6---7-x-9-9-9-----2-2-------------2-x-4-4-4-4------------------
-|-2-2-5-4-2-0-6---7-x-9-9-9-----2-2-5-4-2-0-----0-x-2-2-2-2------------------
-|-0-0---------4-0-5-x-7-7-7-0---0-0---------4-0------------------------------
 Breakdown                                                                    

-|-0-0-0-0-0----0-0---0-0-0-0-0---0---0-0-0-0-0-0-0-0-0-----------------------
-|-4-5-5-4-4/5--5-4---2-4-5-5-4---4/5-5-4-2-0-2-4-5-4-2-----------------------
-|----------------------------------------------------------------------------
-|----------------------------------------------------------------------------
-|----------------------------------------------------------------------------
-|----------------------------------------------------------------------------
                                                                              

-|-0-0-----------------------------|------------------------------------------
-|-5-5-----------------------------|-9-9-9-9-7-9-9-9-7-9-7-9-9-9-9-7-9-9-9-7--
-|-----4-4-----2-2-----4-4-----2-2-|-9-9-9-9-8-9-9-9-8-9-8-9-9-9-9-8-9-9-9-8--
-|-2-2-4-4-4-4-2-2-2-2-4-4-4-4-2-2-|------------------------------------------
-|-2-2-2-2-4-4-0-0-2-2-2-2-4-4-0-0-|------------------------------------------
-|-0-0-----2-2-----0-0-----2-2-----|------------------------------------------
 interlude, w/ fuzz                pm-------------------------------------    

-|----------------------------------------------------------------------------
-|-9-7------------------------------------------------------------------------
-|-9-8------------------------------------------------------------------------
-|----------------------------------------------------------------------------
-|----------------------------------------------------------------------------
-|----------------------------------------------------------------------------
   ---                                                                        

-|----------------------------------------------------------------------------
-|----------------------------------------------------------------------------
-|----------------------------------------------------------------------------
-|-2-2-9-9-9\4-4-7-7-7\2-2-4-4-4-7-7-7-9-9-9\2-2-9-9-9\4-4-7-7-7\2-2-4-4-4/---
-|-2-2-9-9-9\4-4-7-7-7\2-2-4-4-4-7-7-7-9-9-9\2-2-9-9-9\4-4-7-7-7\2-2-4-4-4/---
-|-0-0-7-7-7\2-2-5-5-5\0-0-2-2-2-5-5-5-7-7-7\0-0-7-7-7\2-2-5-5-5\0-0-2-2-2/---
 Outro chorus                     after this play above muted part then end   

Comments