Sum 41 - Motivation Chords & Tabs

 

Motivation Chords & Tabs

Sum 41 Chords & Tabs

Version: 4 Type: Bass Tab 0 ratings
1 star 2 stars 3 stars 4 stars 5 stars
comments

Motivation Bass Tab

   
g-------------------------------
d-------------------------------
a-------------------------------
e-drum part--00---00---00--0 12/

pre verse:
g-------------------------------
d-------------------------------
a-------------------------------
e-0-0-4-4-5-44----0-0-4-4-5-4-4-

g---------------------------------
d---------------------------------
a---------------------------------
e---0-0-4-4-5-4-4--7-7-7-4-5-5-4-4
repeat

verse:

g---------------------------------
d---------------------------------
a---------------------------------   
e-0-0-0-0--4-4-4-4-5-5-5-5-7-7-7-7
repeat 3 times then 4 time do:

g-------------------------
d-------------------------
a----------------------4-6
e-0-0-0-0--4-4-4-4-5-7----

pre verse x2
verse     x1

g---------------------------
d---------------------------
a---------2-2-2-0-0-0-0-0-0- x3
e-0-0-0-0-------------------

g--------------------------------
d--------------------------------
a--------------------------------
e-2-2-2-2-2-2-2-2-5-5-5-5-5-5-5-5
[ Tab from: http://www.guitartabs.cc/tabs/s/sum_41/motivation_btab_ver_4.html ]
guitar part
come in on the second time at the end with
g-----------
d-----------
a-0-2-------
e-----------

g-------------------------------
d------------------------------- x2
a-------5-4-2-0------0-0-0-2-2-2
e--0-0----------4-0-------------

g----------------------------------
d----------------------------------
a-4444444444444444-2222222222222222
e----------------------------------

g--------------------------------------
d-2-2-2-2-2-2-2-2----------------------
a-----------------2-2-2-2-2-2-2-2------
e--------------------------------------

g--------------------------------
d--------------------------------
a-0-0-0-0-0-0-0-0-2-2-2-2-2-2-2-2
e--------------------------------

little bass solo

g------9-11-9--9---13-14-11-9-11-9--9-13-14-11-9
d-9h11--------9--------------------9------------
a-----------------------------------------------
e-----------------------------------------------

g--------------------------------
d--------------------------------x4 
a--------2-2-2-2---------0-0-0-0-
e-0-0-0-0-------2-2-2-2----------

last time do this
g---------------------------------
d---------------------------------
a---------2-2-2-2-----------------
e-0-0-0-0---------2222222222222222

pre verse x2
Comments