Sum 41 - Motivation Chords & Tabs

 

Motivation Chords & Tabs

Sum 41 Chords & Tabs

Version: 1 Type: Bass Tab 0 ratings
1 star 2 stars 3 stars 4 stars 5 stars
comments

Motivation Bass Tab

   
Sum 41
Motivation
This is my first tab so it will probably suck
Tuning: Standard E,A,D,G

intro
|--------------------------------------------------------
|--------------------------------------------------------
|--------------------------------------------------------
|------00--------00--------00--------00-12/--------------


intro pt 2 (x2)
|--------------------------------------------------------
|--------------------------------------------------------
|--------------------------------------------------------
|-000-45-54--000-45-54---000-45-54--777-4554-------------


Verse
|---------------------------
|---------------------------	(x3)
|---------------------------
|--0000---4444---5555---7777

|---------------------------
|---------------------------
|----------------------4--6-
|--0000---4444--55--77------

Chorus
|--------------------------------------------------------
|--------------------------------------------------------
|---77777777-----------77777777--------------------------
|-------------50777777------------5555-7777-5555-7777----

(x2)
|--------------------------------------------------------
|--------------------------------------------------------
|--------------------------------------------------------
|-000-45-54--000-45-54---000-45-54--777-4554-------------


Verse

Chorus

Break (x3)

|---------------------------
|---------------------------
|------33333---0000000000000
|-0000----------------------

|---------------------------
|---------------------------
|---------------------------
|-22222222----555555555---00

(guitar solo)
(pause)
[ Tab from: http://www.guitartabs.cc/tabs/s/sum_41/motivation_btab.html ]
|---------------------------
|---------------------------	(x2)
|-----5-4-2-0---------------
|-00----------4-0--5--77----

|--------------------------------------------------------
|--------------------------------------------------------
|--44444444444444444----222222222222222222222222---------
|--------------------------------------------------------

|--------------------------------------------------------
|---22222222---------------------------------------------
|-------------22222222--000000000--2222222222222222------
|--------------------------------------------------------

Bridge

|-------9---------11----9--------9--------14--13--11-----
|---9------------------------9---------------------------  (x2)
|--------------------------------------------------------
|--------------------------------------------------------

|--------------------------------------------------------
|--------------------------------------------------------
|---------2222--------0000---------2222--------0000------
|---0000--------2222---------0000--------2222------------

|--------------------------------------------------------
|--------------------------------------------------------
|---------2222--------0000---------------00002222-------
|---0000--------2222----------0000--2222-----------------

|--------------------------------------------------------
|--------------------------------------------------------
|---------2222--------0000---------------0000000000000000
|---0000--------2222----------0000--2222-----------------

(x2)
|--------------------------------------------------------
|--------------------------------------------------------
|--------------------------------------------------------
|-000-45-54--000-45-54---000-45-54--777-4554-----0-------

tah-dah! god I love my guitar ahhhhhhhhh

any response would b gr8ly appreciated mail 2 tiddles36@hotmail.com
Comments