Sum 41 - Moron Chords & Tabs

 

Moron Chords & Tabs

Sum 41 Chords & Tabs

Version: 3 Type: Bass Tab

Moron Bass Tab

   
\"Moron\"
By:Sum 41
Tabbed Out By: Taylor Smith
\"A lot of the tabs I read had the general idea, but they were off, so I decided
to make one perfect tab with all the right stuff! Hope you enjoy!!\"
This could be done in Db if you wanted to, but i decided to do this...
Downtuned
(C,A,D,G)

Intro
 (x2)(x2)
G-----------------------------------|--------------------------------|
D-----------------------------------|--------------------------------|
A----------------2-2-2-2------------|---------------2-2-2-2--4-4-4-4-|
C--3333--6-6-6-6---------1-1-1-1----|-3333--6-6-6-6------------------|

Verse 1
(x4)
G--------------------|
D--------------------|
A-----------2-2--4-4-|
C--3-3--6-6----------|
[ Tab from: http://www.guitartabs.cc/tabs/s/sum_41/moron_btab_ver_3.html ]
Chorus
(x4)
G------------------------------------|
D------------------------------------|
A----------2-2-2-2-------------------|
C--3-3-3-3---------6-6-6-6---5-5-5-5-|

Bridge
(x2)(x1)
G-----------------------|-------------|
D-----------------------|-------------|
A-----------------------|-------------|
C-3-3-3---3-3-3-3-3---4-|---3~--------|

Verse 2
(x4)
G--------------------|
D--------------------|
A-----------2-2--4-4-|
C--3-3--6-6----------|

Chorus
(x4)
G------------------------------------|
D------------------------------------|
A----------2-2-2-2-------------------|
C--3-3-3-3---------6-6-6-6---5-5-5-5-|

Outro
(x4)
G--------------------|
D--------------------|
A-----------2-2--4-4-|
C--3-3--6-6----------|

Ending
(x1)
G--------------------|
D--------------------|
A--------------------|
C-3-3-3---3-3-3-3-3~-|