Sum 41 - Makes No Difference Chords & Tabs

 

Makes No Difference Chords & Tabs

Sum 41 Chords & Tabs

Version: 14 Type: Tab 0 ratings
1 star 2 stars 3 stars 4 stars 5 stars
comments

Makes No Difference Tab

Sum 41
Makes No Difference

awesome song right here... couldn't help but tabbing this one. the intro of this song
is pretty sick too. i know most of you think that dave left hand mutes the "in-between"
notes in the intro, but i'm sure he's regular palm-muting them.

standard tuning (EBGDAE)

key:

. = palm-mute
h = hammer on
p = pull-off
x = left-hand mute

and that's all you need to know for this song...

----------------------------------------------------------------------------
Guitar 1 (rhythm)

intro

E|---------------------------------------------------|
B|---------------------------------------------------|
G|---------------------------------------------------|
D|--5------6h8-8-8-8-8--------10---------------------|
A|--6--6-6-------8-8-8--------10------8h10-11-11-10--| (x4)
E|---------------6-6-6--6-6-6--8--8-8----------------|
       . .     .        . . .     . .    

verse

E|----------------------------------------------------------------------|
B|----------------------------------------------------------------------|
G|--8-8-8-8-8-8-8-8--8-8-8-8-8-8-8-8--5-5-5-5-5-5-5-5-------------------|
D|--8-8-8-8-8-8-8-8--8-8-8-8-8-8-8-8--5-5-5-5-5-5-5-5--6-6-6-6-6-6-6-6--|
A|--6-6-6-6-6-6-6-6--5-5-5-5-5-5-5-5--3-3-3-3-3-3-3-3--6-6-6-6-6-6-6-6--| (x2)
E|-----------------------------------------------------4-4-4-4-4-4-4-4--|
    . . . . . . . .  . . . . . . . .  . . . . . . . .  . . . . . . . . 
 
E|----------------------------------------------------------------------|
B|----------------------------------------------------------------------|
G|--8-8-8-8-8-8-8-8--8-8-8-8-8-8-8-8--5-5-5-5-5-5-5-5-------------------|
D|--8-8-8-8-8-8-8-8--8-8-8-8-8-8-8-8--5-5-5-5-5-5-5-5--6-6-6-6-6-6-6-6--|
A|--6-6-6-6-6-6-6-6--5-5-5-5-5-5-5-5--3-3-3-3-3-3-3-3--6-6-6-6-6-6-6-6--| (x2)
E|-----------------------------------------------------4-4-4-4-4-4-4-4--|

chorus

E|-------------------------------------------------------------------|
B|-------------------------------------------------------------------|
G|--8-8-8-8-8-8-8-8------------------------------------4-4--4-4-4-3--|
D|--8-8-8-8-8-8-8-8--3-3-3-3-3-3-3-3--6-6-6-6-6-6-6-6--4-4--4-4-4-3--|
A|--6-6-6-6-6-6-6-6--3-3-3-3-3-3-3-3--6-6-6-6-6-6-6-6--2-2--2-2-2-1--| (x1)
E|-------------------1-1-1-1-1-1-1-1--4-4-4-4-4-4-4-4----------------|

E|-----------------------------------------------------|
B|-----------------------------------------------------|
G|--8-8-8-8-8-8-8-8------------------------------------|
D|--8-8-8-8-8-8-8-8--3-3-3-3-3-3-3-3--6-6-6-6-6-6-6-6--|
A|--6-6-6-6-6-6-6-6--3-3-3-3-3-3-3-3--6-6-6-6-6-6-6-6--| (x1)
E|-------------------1-1-1-1-1-1-1-1--4-4-4-4-4-4-4-4--|

E|---------------------------|
B|---------------------------|
G|--4-4-x-x-x-x-4-x-x-x-x-3--|
D|--4-4-x-x-x-x-4-x-x-x-x-3--|
A|--2-2-x-x-x-x-2-x-x-x-x-1--| (x1)
E|---------------------------|

post-chorus

E|------------------------------------------|
B|------------------------------------------|
G|--8-8-88--------------5-5-55--------------|
D|--8-8-88--8-8-8--888--5-5-55--6-6-6--666--|
A|--6-6-66--8-8-8--888--3-3-33--6-6-6--666--| (x2)
E|----------6-6-6--666----------4-4-4--444--|

verse

E|----------------------------------------------------------------------|
B|----------------------------------------------------------------------|
G|--8-8-8-8-8-8-8-8--8-8-8-8-8-8-8-8--5-5-5-5-5-5-5-5-------------------|
D|--8-8-8-8-8-8-8-8--8-8-8-8-8-8-8-8--5-5-5-5-5-5-5-5--6-6-6-6-6-6-6-6--|
A|--6-6-6-6-6-6-6-6--5-5-5-5-5-5-5-5--3-3-3-3-3-3-3-3--6-6-6-6-6-6-6-6--| (x2)
E|-----------------------------------------------------4-4-4-4-4-4-4-4--|
    . . . . . . . .  . . . . . . . .  . . . . . . . .  . . . . . . . . 

E|----------------------------------------------------------------------|
B|----------------------------------------------------------------------|
G|--8-8-8-8-8-8-8-8--8-8-8-8-8-8-8-8--5-5-5-5-5-5-5-5-------------------|
D|--8-8-8-8-8-8-8-8--8-8-8-8-8-8-8-8--5-5-5-5-5-5-5-5--6-6-6-6-6-6-6-6--|
A|--6-6-6-6-6-6-6-6--5-5-5-5-5-5-5-5--3-3-3-3-3-3-3-3--6-6-6-6-6-6-6-6--| (x2)
E|-----------------------------------------------------4-4-4-4-4-4-4-4--|

chorus

E|-------------------------------------------------------------------|
B|-------------------------------------------------------------------|
G|--8-8-8-8-8-8-8-8------------------------------------4-4--4-4-4-3--|
D|--8-8-8-8-8-8-8-8--3-3-3-3-3-3-3-3--6-6-6-6-6-6-6-6--4-4--4-4-4-3--|
A|--6-6-6-6-6-6-6-6--3-3-3-3-3-3-3-3--6-6-6-6-6-6-6-6--2-2--2-2-2-1--| (x1)
E|-------------------1-1-1-1-1-1-1-1--4-4-4-4-4-4-4-4----------------|

E|-----------------------------------------------------|
B|-----------------------------------------------------|
G|--8-8-8-8-8-8-8-8------------------------------------|
D|--8-8-8-8-8-8-8-8--3-3-3-3-3-3-3-3--6-6-6-6-6-6-6-6--|
A|--6-6-6-6-6-6-6-6--3-3-3-3-3-3-3-3--6-6-6-6-6-6-6-6--| (x1)
E|-------------------1-1-1-1-1-1-1-1--4-4-4-4-4-4-4-4--|

E|---------------------------|
B|---------------------------|
G|--4-4-x-x-x-x-4-x-x-x-x-3--|
D|--4-4-x-x-x-x-4-x-x-x-x-3--|
A|--2-2-x-x-x-x-2-x-x-x-x-1--| (x1)
E|---------------------------|

bridge/solo thing

E|------------------------------------------|
B|------------------------------------------|
G|--8--88-8--x-88-8-88----------------------|
D|--8--88-8--x-88-8-88--8--88-8--x-66-6-66--|
A|--6--66-6--x-55-5-55--8--88-8--x-66-6-66--| (x4)
E|----------------------6--66-6--x-44-4-44--|

E|------------------------------------------------------|
B|------------------------------------------------------|
G|--8--8-8--888---------------5--5-5--555---------------|
D|--8--8-8--888--8--8-8--888--5--5-5--555--6--6-6--666--|
A|--6--6-6--666--8--8-8--888--3--3-3--333--6--6-6--666--| (x5)
E|---------------6--6-6--666---------------4--4-4--444--|
    .  . .  ...  .  . .  ...  .  . .  ...  .  . .  ...

E|---------------------------------------------------|
B|---------------------------------------------------|
G|--8--8-8--888---------------5--5-5--555------------|
D|--8--8-8--888--8--8-8--888--5--5-5--555--66666666--|
A|--6--6-6--666--8--8-8--888--3--3-3--333--66666666--| (x1)
E|---------------6--6-6--666---------------44444444--|
    .  . .  ...  .  . .  ...  .  . .  ...  

chorus

E|-------------------------------------------------------------------|
B|-------------------------------------------------------------------|
G|--8-8-8-8-8-8-8-8------------------------------------4-4--4-4-4-3--|
D|--8-8-8-8-8-8-8-8--3-3-3-3-3-3-3-3--6-6-6-6-6-6-6-6--4-4--4-4-4-3--|
A|--6-6-6-6-6-6-6-6--3-3-3-3-3-3-3-3--6-6-6-6-6-6-6-6--2-2--2-2-2-1--| (x1)
E|-------------------1-1-1-1-1-1-1-1--4-4-4-4-4-4-4-4----------------|

E|-----------------------------------------------------|
B|-----------------------------------------------------|
G|--8-8-8-8-8-8-8-8------------------------------------|
D|--8-8-8-8-8-8-8-8--3-3-3-3-3-3-3-3--6-6-6-6-6-6-6-6--|
A|--6-6-6-6-6-6-6-6--3-3-3-3-3-3-3-3--6-6-6-6-6-6-6-6--| (x1)
E|-------------------1-1-1-1-1-1-1-1--4-4-4-4-4-4-4-4--|

E|---------------------------|
B|---------------------------|
G|--4-4-x-x-x-x-4-x-x-x-x-3--|
D|--4-4-x-x-x-x-4-x-x-x-x-3--|
A|--2-2-x-x-x-x-2-x-x-x-x-1--| (x1)
E|---------------------------|

post-chorus

E|------------------------------------------|
B|------------------------------------------|
G|--8-8-88--------------5-5-55--------------|
D|--8-8-88--8-8-8--888--5-5-55--6-6-6--666--|
A|--6-6-66--8-8-8--888--3-3-33--6-6-6--666--| (x4)
E|----------6-6-6--666----------4-4-4--444--|

outro

E|---------------------------------------------------|
B|---------------------------------------------------|
G|---------------------------------------------------|
D|--5------6h8-8-8-8-8--------10---------------------|
A|--6--6-6-------8-8-8--------10------8h10-11-11-10--| (x1)
E|---------------6-6-6--6-6-6--8--8-8----------------|
       . .     .        . . .     . .    

E|------------------------------------------------------|
B|------------------------------------------------------|
G|------------------------------------------------------|
D|--5------6h8-8-8-8-8--------10------------------------|
A|--6--6-6-------8-8-8--------10------8h10-11-11-11-10--| (x1)
E|---------------6-6-6--6-6-6--8--8-8-------------------|
       . .     .        . . .     . .    

----------------------------------------------------------------------------
Guitar 2 (higher notes)

intro

E|-----------------------------------------|
B|-----------------------------------------|
G|--8-8-88--8-8-8--888--8-8-88--13-13-12~--|
D|--x-x-xx--x-x-x--xxx--x-x-xx---x--x--x---|
A|--6-6-66--6-6-6--666--6-6-66--11-11-10~--| (x1)
E|-----------------------------------------|

E|-----------------------------------------|
B|-----------------------------------------|
G|--8-8-88--8-8-8--888--8-8-88--10-10-12~--|
D|--x-x-xx--x-x-x--xxx--x-x-xx---x--x--x---|
A|--6-6-66--6-6-6--666--6-6-66---8--8-10~--| (x1)
E|-----------------------------------------|

verse
[ Tab from: http://www.guitartabs.cc/tabs/s/sum_41/makes_no_difference_tab_ver_14.html ]
E|----------------------------------------------------------------------|
B|----------------------------------------------------------------------|
G|--8-8-8-8-8-8-8-8--8-8-8-8-8-8-8-8--5-5-5-5-5-5-5-5-------------------|
D|--8-8-8-8-8-8-8-8--8-8-8-8-8-8-8-8--5-5-5-5-5-5-5-5--6-6-6-6-6-6-6-6--|
A|--6-6-6-6-6-6-6-6--5-5-5-5-5-5-5-5--3-3-3-3-3-3-3-3--6-6-6-6-6-6-6-6--| (x2)
E|-----------------------------------------------------4-4-4-4-4-4-4-4--|
    . . . . . . . .  . . . . . . . .  . . . . . . . .  . . . . . . . . 
 
E|----------------------------------------------------------------------|
B|----------------------------------------------------------------------|
G|--8-8-8-8-8-8-8-8--8-8-8-8-8-8-8-8--5-5-5-5-5-5-5-5-------------------|
D|--8-8-8-8-8-8-8-8--8-8-8-8-8-8-8-8--5-5-5-5-5-5-5-5--6-6-6-6-6-6-6-6--|
A|--6-6-6-6-6-6-6-6--5-5-5-5-5-5-5-5--3-3-3-3-3-3-3-3--6-6-6-6-6-6-6-6--| (x1)
E|-----------------------------------------------------4-4-4-4-4-4-4-4--|

E|--------------------------------------------------------------|
B|-----------------------------------------------------9--8-----|
G|--8-8-8-8-8-8-8-8--8-8-8-8-8-8-8-8--5-5-5-5-5-5-5-5--------8--|
D|--8-8-8-8-8-8-8-8--8-8-8-8-8-8-8-8--5-5-5-5-5-5-5-5-----------|
A|--6-6-6-6-6-6-6-6--5-5-5-5-5-5-5-5--3-3-3-3-3-3-3-3-----------| (x1)
E|--------------------------------------------------------------|

chorus (quiet/hard to hear)

E|------------------------------------------|
B|------------------------------------------|
G|--8-8-888-8--888-888--5-5-555-5--555-555--|
D|--x-x-xxx-x--xxx-xxx--x-x-xxx-x--xxx-xxx--|
A|--6-6-666-6--666-666--3-3-333-3--333-333--| (x1)
E|------------------------------------------|

E|---------------------------------------|
B|---------------------------------------|
G|--8-8-888-8--888-888--4-4-4-4-4-4-4-3--|
D|--x-x-xxx-x--xxx-xxx--x-x-x-x-x-x-x-x--|
A|--6-6-666-6--666-666--2-2-2-2-2-2-2-1--| (x1)
E|---------------------------------------|

E|------------------------------------------|
B|------------------------------------------|
G|--8-8-888-8--888-888--5-5-555-5--555-555--|
D|--x-x-xxx-x--xxx-xxx--x-x-xxx-x--xxx-xxx--|
A|--6-6-666-6--666-666--3-3-333-3--333-333--| (x1)
E|------------------------------------------|

E|-----------------------------------------------|
B|-----------------------------------------------|
G|--8-8-888-8--888-888--4-4-x-x-x-x-4-x-x-x-x-3--|
D|--x-x-xxx-x--xxx-xxx--x-x-x-x-x-x-x-x-x-x-x-x--|
A|--6-6-666-6--666-666--2-2-x-x-x-x-2-x-x-x-x-1--| (x1)
E|-----------------------------------------------|

post-chorus

E|-------------------------------------------------|
B|-------------------------------------------------|
G|--12-12-12-12--13-12-10---12-12-12-12--10-12--8--|
D|---x--x--x--x---x--x--x----x--x--x--x---x--x--x--|
A|--10-10-10-10--11-10--8---10-10-10-10---8-10--6--| (x1)
E|-------------------------------------------------|

E|-------------------------------------------------|
B|-------------------------------------------------|
G|--12-12-12-12--15-13-10---12-12-12-12--13-15--8--|
D|---x--x--x--x---x--x--x----x--x--x--x---x--x--x--|
A|--10-10-10-10--13-11--8---10-10-10-10--11-13--6--| (x1)
E|-------------------------------------------------|

verse

E|----------------------------------------------------------------------|
B|----------------------------------------------------------------------|
G|--8-8-8-8-8-8-8-8--8-8-8-8-8-8-8-8--5-5-5-5-5-5-5-5-------------------|
D|--8-8-8-8-8-8-8-8--8-8-8-8-8-8-8-8--5-5-5-5-5-5-5-5--6-6-6-6-6-6-6-6--|
A|--6-6-6-6-6-6-6-6--5-5-5-5-5-5-5-5--3-3-3-3-3-3-3-3--6-6-6-6-6-6-6-6--| (x2)
E|-----------------------------------------------------4-4-4-4-4-4-4-4--|
    . . . . . . . .  . . . . . . . .  . . . . . . . .  . . . . . . . . 

E|----------------------------------------------------------------------|
B|----------------------------------------------------------------------|
G|--8-8-8-8-8-8-8-8--8-8-8-8-8-8-8-8--5-5-5-5-5-5-5-5-------------------|
D|--8-8-8-8-8-8-8-8--8-8-8-8-8-8-8-8--5-5-5-5-5-5-5-5--6-6-6-6-6-6-6-6--|
A|--6-6-6-6-6-6-6-6--5-5-5-5-5-5-5-5--3-3-3-3-3-3-3-3--6-6-6-6-6-6-6-6--| (x2)
E|-----------------------------------------------------4-4-4-4-4-4-4-4--|

chorus (quiet/hard to hear)

E|------------------------------------------|
B|------------------------------------------|
G|--8-8-888-8--888-888--5-5-555-5--555-555--|
D|--x-x-xxx-x--xxx-xxx--x-x-xxx-x--xxx-xxx--|
A|--6-6-666-6--666-666--3-3-333-3--333-333--| (x1)
E|------------------------------------------|

E|---------------------------------------|
B|---------------------------------------|
G|--8-8-888-8--888-888--4-4-4-4-4-4-4-3--|
D|--x-x-xxx-x--xxx-xxx--x-x-x-x-x-x-x-x--|
A|--6-6-666-6--666-666--2-2-2-2-2-2-2-1--| (x1)
E|---------------------------------------|

E|------------------------------------------|
B|------------------------------------------|
G|--8-8-888-8--888-888--5-5-555-5--555-555--|
D|--x-x-xxx-x--xxx-xxx--x-x-xxx-x--xxx-xxx--|
A|--6-6-666-6--666-666--3-3-333-3--333-333--| (x1)
E|------------------------------------------|

E|-----------------------------------------------|
B|-----------------------------------------------|
G|--8-8-888-8--888-888--4-4-x-x-x-x-4-x-x-x-x-3--|
D|--x-x-xxx-x--xxx-xxx--x-x-x-x-x-x-x-x-x-x-x-x--|
A|--6-6-666-6--666-666--2-2-x-x-x-x-2-x-x-x-x-1--| (x1)
E|-----------------------------------------------|

post-chorus/bridge

E|-----------------------------------------------------|
B|--8--8--8-8-8-8-8--8--8-8---8--8--8-8-8-8-8--9--9-9--|
G|--8--8--8-8-8-8-8--8--8-8---8--8--8-8-8-8-8--8--8-8--|
D|-----------------------------------------------------|
A|-----------------------------------------------------| (x1)
E|-----------------------------------------------------|

E|--11--11-11-11-----------------------------------------------|
B|--11--11-11-11--11-11-11--11-11--11-11--8--8-8--9-8--9-8--9--|
G|---8---8--8--8---8--8--8---8--8---8--8--8--8-8--8-8--8-8--8--|
D|-------------------------------------------------------------|
A|-------------------------------------------------------------| (x3)
E|-------------------------------------------------------------|

plays very little for this next part

E|--15-----------------|
B|-----16------16-16~--|
G|--------15---15-15~--|
D|---------------------|
A|---------------------| (x5)
E|---------------------|

E|-------------------|
B|--9-8-8-9-8-8-9-8--|
G|--8-8-8-8-8-8-8-8--|
D|-------------------|
A|-------------------| (x1)
E|-------------------|

chorus

chorus (quiet/hard to hear)

E|------------------------------------------|
B|------------------------------------------|
G|--8-8-888-8--888-888--5-5-555-5--555-555--|
D|--x-x-xxx-x--xxx-xxx--x-x-xxx-x--xxx-xxx--|
A|--6-6-666-6--666-666--3-3-333-3--333-333--| (x1)
E|------------------------------------------|

E|---------------------------------------|
B|---------------------------------------|
G|--8-8-888-8--888-888--4-4-4-4-4-4-4-3--|
D|--x-x-xxx-x--xxx-xxx--x-x-x-x-x-x-x-x--|
A|--6-6-666-6--666-666--2-2-2-2-2-2-2-1--| (x1)
E|---------------------------------------|

E|------------------------------------------|
B|------------------------------------------|
G|--8-8-888-8--888-888--5-5-555-5--555-555--|
D|--x-x-xxx-x--xxx-xxx--x-x-xxx-x--xxx-xxx--|
A|--6-6-666-6--666-666--3-3-333-3--333-333--| (x1)
E|------------------------------------------|

E|-----------------------------------------------|
B|-----------------------------------------------|
G|--8-8-888-8--888-888--4-4-x-x-x-x-4-x-x-x-x-3--|
D|--x-x-xxx-x--xxx-xxx--x-x-x-x-x-x-x-x-x-x-x-x--|
A|--6-6-666-6--666-666--2-2-x-x-x-x-2-x-x-x-x-1--| (x1)
E|-----------------------------------------------|

post-chorus

E|-------------------------------------------------|
B|-------------------------------------------------|
G|--12-12-12-12--13-12-10---12-12-12-12--10-12--8--|
D|---x--x--x--x---x--x--x----x--x--x--x---x--x--x--|
A|--10-10-10-10--11-10--8---10-10-10-10---8-10--6--| (x1)
E|-------------------------------------------------|

E|-------------------------------------------------|
B|-------------------------------------------------|
G|--12-12-12-12--15-13-10---12-12-12-12--13-15--8--|
D|---x--x--x--x---x--x--x----x--x--x--x---x--x--x--|
A|--10-10-10-10--13-11--8---10-10-10-10--11-13--6--| (x1)
E|-------------------------------------------------|
*play this whole thing twice

outro

E|-----------------------------------------|
B|-----------------------------------------|
G|--8-8-88--8-8-8--888--8-8-88--13-13-12~--|
D|--x-x-xx--x-x-x--xxx--x-x-xx---x--x--x---|
A|--6-6-66--6-6-6--666--6-6-66--11-11-10~--| (x1)
E|-----------------------------------------|

E|-----------------------------------------|
B|-----------------------------------------|
G|--8-8-88--8-8-8--888--8-8-88--131313-12--|
D|--x-x-xx--x-x-x--xxx--x-x-xx---x-x-x--x--|
A|--6-6-66--6-6-6--666--6-6-66--111111-10--| (x1)
E|-----------------------------------------|


and there you go... yet another tab for this amazing song... hopefully this one
is the best one so far. if you have any comments or questions you can e-mail me
at killinginthename247@yahoo.com
Comments