Sum 41 - In Too Deep Chords & Tabs

 

In Too Deep Chords & Tabs

Sum 41 Chords & Tabs

Version: 7 Type: Tab 0 ratings
1 star 2 stars 3 stars 4 stars 5 stars
comments

In Too Deep Tab

 --------------------------
    Sum 41 - In Too Deep    Transcribed by Nick Brough 
 --------------------------
This is my first tab i got it out of a book so i guess its almost right.

Standard Tuning EADGBe 

x means palm mute

Intro:

Guitar 1
      --------------------------------------------------------------------
      --------------------------------------------------------------------               
      -------------------------------------------------------------------- 
      -----------------6--7--9--7---------------------------------6-------
      -----7--------7-----------------0---0---0---0---6---7---9-----------
      --0--------0--------------------------------------------------------
        x        x  x  x  x           x  x  x  x  x  x  x

Guitar 2
      --------------------------------------------------------------------
      -----------------------9--------------------------------------------
      -----------------9--------------------------------------------------
      --9---9---9---9-----9-----9-----9---9---9---9---7---6---7---9-------
      --------------------------------------------------------------------
      --------------------------------------------------------------------
PM      x   x   x   x  x  x  x  x     x   x   x   x   x   x   x   x    




Verse 2:
      -------------------------------|------------------------------------
      --9----9----9----5----5----5---|------------------------------------               
      --9----9----9----6----6----6--o|------------------------------------
      --9----9----9----7----7----7--o|-7--7--7--7--7--7--7--7-------------
      -------------------------------|-7--7--7--7--7--7--7--7-------------              
      -------------------------------|-5--5--5--5--5--5--5--5-------------



Chorus:
      ------------------------|-----------------|----------------------|--
      --0-0-0-0-2-2-2-2-2-0---|--0-0-0-0--------|-0-0-0-0-2-2-2-2-2-0--|--
      --1-1-1-1-2-2-2-2-2-1--o|--1-1-1-1-2-2-2--|-1-1-1-1-2-2-2-2-2-1-o|--
      --2-2-2-2-2-2-2-2-2-2--o|--2-2-2-2-2-2-2--|-2-2-2-2-2-2-2-2-2-2-o|--
      --2-2-2-2-0-0-0-0-0-2---|--2-2-2-2-0-0-0--|-2-2-2-2-0-0-0-0-0-2--|--            
      --0-0-0-0-----------0---|--0-0-0-0--------|-0-0-0-0-----------0--|--

      --------------------------------------------------------------------
      --------------------------------------------------------------------               
      --9-9-9-7-7-7-------------------------------------------------------
      --9-9-9-7-7-7-7-7-7-7---x-x-x-x-x-x-x--------------7-7-7-7-7--------
      --7-7-7-5-5-5-7-7-7-7---x-x-x-x-x-x-x-2--2--2--7---7-7-7-7-7--------               
      --0-0-0-------5-5-5-5---x-x-x-x-x-x-x-0--0--0------5-5-5-4-5--------
[ Tab from: http://www.guitartabs.cc/tabs/s/sum_41/in_too_deep_tab_ver_7.html ]
      --------------------------------------------------------------------
      --------------------------------------------------------------------               
      --------------------------------------------------------------------
      -----------7-7-7-7-7-----------7-7-7-7-7----------------------------
      --2--2--7--7-7-7-7-7--2-2-/11--7-7-7-7-7--2-2-/11--7-7-6-4----------               
      --0--0-----5-5-5-4-5--0-0------5-5-5-4-5--0-0------5-5-4-2-4--------



Verse 3:
      -----------------------------------|--------------------------------
      -----------------------------------|--------------------------------               
      ----------------------------------o|--------------------------------
      --2-2----------6---7-7----------7-o|--7-7------6---7-7------7-------
      --2-2----------6---7-7----------7--|--7-7------6---7-7------7-------               
      --0-0----------4---5-5----------5--|--5-5------4---5-5------5-------



Verse 4:
      ------------------------------------|-------------------------------
      ------------------------------------|-------------------------------               
      -----------------------------------o|-------------------------------
      --2----------------7---------------o|--7-7-7-7-7-7-7-7--------------
      --2-2-2-2-2-2-2-2--7-7-7-7-7-7-7-7--|--7-7-7-7-7-7-7-7--------------               
      --0-0-0-0-0-0-0-0--5-5-5-5-5-5-5-5--|--5-5-5-5-5-5-5-5--------------
          x x x x x x x    x x x x x x x     x



Interlude:
      --------------------------------------------------------------------
      --------------------------------------------------------------------               
      --------------------------------------------------------------------
      ---------------------------------------------------x-x-x-x-x-x------
      --------------7--------------7--------------7------x-x-x-x-x-x------               
      --0--0--0--0-----0--0--0--0-----0--0--0--0-----0---x-x-x-x-x-x------



Solo:    P P H P P   P P H P P   H P H S
      -5-4-0-5-4-0-7-5-0-7-5-0-2-4-2-4-5----------------------------------|
      -------------------------4-5-4-5-7--0-9-0-10-0-12-0-10-0-7-0-9-0-10-|               
      -------------------------------------------------------------------o|
      -------------------------------------------------------------------o|
      --------------------------------------------------------------------|               
      --------------------------------------------------------------------|
				      BU       BD
      -----------------------------16----(17)-----(16)--------------------
      -9-0-10-0-12-0-10-0-9-0-7-0--17----(19)-----(17)--------------------               
      --------------------------------------------------------------------
      --------------------------------------------------------------------
      --------------------------------------------------------------------             
      --------------------------------------------------------------------


If u have any problems e-mail me at nickbrough@hotmail.com













Comments