Sum 41 - In Too Deep Chords & Tabs

 

In Too Deep Chords & Tabs

Sum 41 Chords & Tabs

Version: 28 Type: Tab 0 ratings
1 star 2 stars 3 stars 4 stars 5 stars
comments

In Too Deep Tab

   
Intro A
e-----------------------------------------------------------|
B-----------------------------------------------------------|
G-----------1-2-2--4-2------------------1-------------------|
D----2----------------------------1-2-4---------------------|
A------------------------0-0-0--0---------------------------|
E--0-----0--------------------------------------------------|

Riff 1
e--4---4-4----0---0-0----4---4-4----------------------------|
B--5---5-5----2---2-2----5---5-5----------------------------|
G--4---4-4----2---2-2----4---4-4----------------------------|
D----------------------------------7m-7m-7m-7m-7-7-7-7------|
A----------------------------------7m-7m-7m-7m-7-7-7-7------|
E----------------------------------5m-5m-5m-5m-5-5-5-5------|

Chorus
e----------------------|------------------------------------|
B----------------------|------------------------------------|
G----------------------|--9-9-9-9--7-7-7-7------------------|
D--2-2-2-2--7-7-7-7----|--9-9-9-9--7-7-7-7--7-7-7-7--x------|
A--2-2-2-2--7-7-7-7----|--7-7-7-7--5-5-5-5--7-7-7-7--x-(x8)-|
E--0-0-0-0--5-5-5-5----|--------------------5-5-5-5--x------|

Post-Chorus A
e------------------------|
B------------------------|
G-------9----------------|
D--2-2--x--7-7--6--7-----|
A--2-2--7--7-7--6--7-----|
E--0-0-----5-5--4--5-----|
[ Tab from: http://www.guitartabs.cc/tabs/s/sum_41/in_too_deep_tab_ver_28.html ]
Verse 1
e--------------------------------------|---------------------|
B--------------------------------------|---------------------|
G--------------------------------------|---------------------|
D--2-2--6-7-7--7--2-2--6-7-7--6-7-7--7-|-2-2m------7-7m------|
A--2-2--6-7-7--7--2-2--6-7-7--6-7-7--7-|-2-2m-(x7)-7-7m------|(x7)
E--0-0--4-5-5--5--0-0--4-5-5--4-5-5--5-|-0-0m------5-5m------|

Riff 2
e-----------------------------------------------------------|
B-----------------------------------------------------------|
G--------9--------9--------9--------------------------------|
D--2-2-2-x--2-2-2-x--2-2-2-x--2-2-2--x-x-x-x-x-x------------|
A--2-2-2-7--2-2-2-7--2-2-2-7--2-2-2--x-x-x-x-x-x------------|
E--0-0-0----0-0-0----0-0-0----0-0-0--x-x-x-x-x-x------------|

Solo A
e-----------------------------------------------------------|
B-----------------------------------------------------------|
G------------------------7-7-7-7-7--------------------------|
D--2-2-2-2-2--4-4-4-4-4--7-7-7-7-7--7-7-7-7-7--6------------|
A--2-2-2-2-2--4-4-4-4-4--5-5-5-5-5--7-7-7-7-7--6------------|
E--0-0-0-0-0--2-2-2-2-2-------------5-5-5-5-5--4------------|

Verse 2
e----------------------|
B----------------------|
G----------------------|
D--2-2--4-4--7-7--9-9--|
A--2-2--4-4--7-7--9-9--|
E--0-0--2-2--5-5--7-7--|

Outro
e-----------------------------------------------------------|
B-----------------------------------------------------------|
G--9---7-----------9---7------------------------------------|
D--9---7---7---7---9---7---7---10---------------------------|
A--7---5---7---7---7---5---7---10---------------------------|
E----------5---5-----------5----8---------------------------|
Comments