Sum 41 - In Too Deep Chords & Tabs

 

In Too Deep Chords & Tabs

Sum 41 Chords & Tabs

Version: 26 Type: Tab 0 ratings
1 star 2 stars 3 stars 4 stars 5 stars
comments

In Too Deep Tab

Author/Artist: Sum 41
Title: In Too Deep [Solo] [PROPER]
Album: All Killer No Filler
Transcribed by: Rishesh Singh
Email: Sheesh@attbi.com

Notes: - Standard Tuning or Dropped D if playing w/ rest of song
       - This version is 100% note-for-note
       - The solo is played by TWO GUITARS during the recording
         of the song. I have tabbed out three ways to play the 
         solo. The first way is both guitar parts on one guitar,
         the second way is just guitar 1 and the last way is 
         just guitar 2's part.
       - For the skeptics who think this is wrong, it's RIGHT.
         Trust me. If it doesn't sound right, make sure ur guitar
         is in tune, check the notation guide, or run it by 
         another guitarist.
       - Notation Guide: P = Pull-Off




Two Guitars Arranged For One:

-5p4p0--5p4p0--7p5p0--7p5p0--2-4-2-4-5--4-5-7-5-4-2-4-5-----------------------
-----------------------------4-5-4-5-7----------------------------------------
------------------------------------------------------------------------------
------------------------------------------------------------------------------
------------------------------------------------------------------------------
------------------------------------------------------------------------------
[ Tab from: http://www.guitartabs.cc/tabs/s/sum_41/in_too_deep_tab_ver_26.html ]
-5p4p0--5p4p0--7p5p0--7p5p0--2-4-2-4-5--4-5-7-5-4-2---12-14-12----------------
-----------------------------4-5-4-5-7----------------------------------------
------------------------------------------------------------------------------
------------------------------------------------------------------------------
------------------------------------------------------------------------------
------------------------------------------------------------------------------

                                          

Guitar One:                                    

-5p4p0--5p4p0--7p5p0--7p5p0--2-4-2-4-5--4-5-7-5-4-2-4-5-----------------------
------------------------------------------------------------------------------
------------------------------------------------------------------------------
------------------------------------------------------------------------------
------------------------------------------------------------------------------
------------------------------------------------------------------------------

-5p4p0--5p4p0--7p5p0--7p5p0--2-4-2-4-5--4-5-7-5-4-2---12-14-12----------------
------------------------------------------------------------------------------
------------------------------------------------------------------------------
------------------------------------------------------------------------------
------------------------------------------------------------------------------
------------------------------------------------------------------------------
                                                                              

Guitar Two:

------------------------------------------------------------------------------
-----------------------------4-5-4-5-7----------------------------------------
------------------------------------------------------------------------------
------------------------------------------------------------------------------
------------------------------------------------------------------------------
------------------------------------------------------------------------------
Comments