Sum 41 - In Too Deep Chords & Tabs

 

In Too Deep Chords & Tabs

Sum 41 Chords & Tabs

Version: 25 Type: Tab 0 ratings
1 star 2 stars 3 stars 4 stars 5 stars
comments

In Too Deep Tab

   
Artist:Sum 41
Song:In Too Deep
Album:All Killer
Tuning:Nat. (E-A-D-G-B-e)

Intro    Gtr.1   x6

P.M...............................................................
e----------------------------------------------------------------|
B----------------------------------------------------------------|
G----------------------------------------------------------------|
D----------------------6--7----9--7----------------------6-------|
A----------7--------7----------------0-0-0-0---6--7--9-----------|
E----0----------0------------------------------------------------|

Intro
 Gtr.2
e----------------------------------------------------------------|
B-------------------9--------------------------------------------|
G-------------9--------------------------------------------------|
D---9--9-9-9----9------9----9--9-9-9---7--6--7--9----------------|
A----------------------------------------------------------------|
E----------------------------------------------------------------|

e----------------------------------------------------------------|
B-------------------9--------------------------------------------|
G-------------9--------------------------------------------------|
D---9--9-9-9----9------9----9--9-9-9---7--6----------------------|
A---------------------------------------------9---7--------------|
E----------------------------------------------------------------|

First Pre-Chorus

e-------------------------------5-------5----5-------------------|
B--------9--------9----9--------5-------5----5----9-----9---9----|
G--------9--------9----9--------6-------6----6----9-----9---9----|
D--------9--------9----9--------7-------7----7----9-----9---9----|
A----------------------------------------------------------------|
E----------------------------------------------------------------|

   1     2  +  3  + 4  + ext.

P.M.........|
e----------------------------------------------------------------|
B----------------------------------------------------------------|
G--2-2-2-2----2-2-2-2-2-----2-2----------------------------------|
D--2-2-2-2----2-2-2-2-2-----2-2----------------------------------|
A--0-0-0-0----0-0-0-0-0--0--0-0----------------------------------|
E------------------------0---------------------------------------|

 Chorus
 Riff 1  x3
e----------------------------------------------------------------|
B----------------------------------------------------------------|
G------------2-2-2-2---------------------------------------------|
D--2--2---0--2-2-2-2---------------------------------------------|
A--2--2---0--0-0-0-0---------------------------------------------|
E--0--0----------------------------------------------------------|
Then
Riff 2                           Riff x3
e--------------------|-----------|---------------------------------|
B--------------------|-----------|---------------------------------|
G--------------2--2--|-----------|-----------2-2-2-2---------------|
D--2--2--2--0--2--2--|-----------|--2--2--0--2-2-2-2---------------|
A--2--2--2--0--0--0--|-----------|--2--2--0--0-0-0-0---------------|
E--0--0--0-----------|-----------|--0--0---------------------------|
"of going under"      "Cause i'm"  "in too deep"

 Then Riff 3
e----------------------------------------------------------------|
B----------------------------------------------------------------|
G--9-9-9-9---7-7-7-----------------------------------------------|
D--9-9-9-9---7-7-7-----------------------------------------------|
A--7-7-7-7---5-5-5--0----7-7-7-7----xxxx-xxx-o-------------------|
E--7-7-7-7----------0----5-5-5-5----xxxx-xxx-o-------------------|
 "insted of going under again"

 Then Riff 4  x2
e----------------------------------------------------------------|
B----------------------------------------------------------------|
G---------9------------------------------------------------------|
D---------x------------------------------------------------------|
A---------7----7-7--7-7------------------------------------------|
E--0--0--------5-5--4-5------------------------------------------|

 Then Riff 4A              Then Riff 4B
e-------------------------|----------------------------------------|
B-------------------------|----------------------------------------|
G---------13--------------|--------13------------------------------|
D---------x---------------|--------x-------------------------------|
A---------11----7-7--7-7--|--------11---7---6---4------------------|
E--0--0---------5-5--4-5--|--0--0-------5---4---2-----4------------|

Verse  x2

e----------------------------------------------------------------|
B----------------------------------------------------------------|
G----------------------------------------------------------------|
D----------------------------------------------------------------|
A---2-2----6--7--7-------2-2----6--7--7---6---7--7---7-----------|
E---0-0----4--5--5-------0-0----4--5--5---4---5--5---5-----------|

2nd Pre-Chorus

P.M.........|

e----------------------------------------------------------------|
B----------------------------------------------------------------|
G----------------------------------------------------------------|
D--2-2-2-2----2-2-2-2-2-2-2--------------------------------------|
A--2-2-2-2----2-2-2-2-2-2-2--------------------------------------|
E--0-0-0-0----0-0-0-0-0-0-0--------------------------------------|
"mabye we're just trying to hard"

P.M........|

e----------------------------------------------------------------|
B----------------------------------------------------------------|
G--2-2-2-2----2-2-2-2-2-2-2--------------------------------------|
D--2-2-2-2----2-2-2-2-2-2-2--------------------------------------|
A--0-0-0-0----0-0-0-0-0-0-0--------------------------------------|
E----------------------------------------------------------------|

P.M.........|

e----------------------------------------------------------------|
B----------------------------------------------------------------|
G----------------------------------------------------------------|
D--2-2-2-2----2-2-2-2-2-2-2--------------------------------------|
A--2-2-2-2----2-2-2-2-2-2-2--------------------------------------|
E--0-0-0-0----0-0-0-0-0-0-0--------------------------------------|
 'Closer than it is to far"
[ Tab from: http://www.guitartabs.cc/tabs/s/sum_41/in_too_deep_tab_ver_25.html ]
P.M.........|
e----------------------------------------------------------------|
B----------------------------------------------------------------|
G--2-2-2-2----2-2-2-2-2-----2-2----------------------------------|
D--2-2-2-2----2-2-2-2-2-----2-2----------------------------------|
A--0-0-0-0----0-0-0-0-0--0--0-0----------------------------------|
E------------------------0---------------------------------------|

Now play the chorus


Then
Riff 5
e---------------------------------------------------------------------|
B---------------------------------------------------------------------|
G----------------------------------7-7-7------------------------------|
D-----------------------9--9-9-----7-7-7------------------------------|
A--7-7-7-7-7-7-7-7--0---7--7-7--0--5-5-5--0--7-7-7-7-7-7-7-7-7-7-7-7--|
E--5-5-5-5-5-5-5-5--0---7--7-7--0---------0--5-5-5-5-5-5-5-5-5-5-5-5--|

Then
Riff 5B

e----------------------------------------------------------------|
B----------------------------------------------------------------|
G----------/9----------/9---------/9-----------------------------|
D-----------x-----------x----------x-----------------------------|
A----------/7----------/7---------/7-------0--xxxxxx-------------|
E-0-0-0-0------0-0-0-0----0-0-0-0-------0--0--xxxxxx-------------|

Guitar solo

e---5p4p0---5p4p0---7p5p0---7p5p0----------------------------------------|
B----------------------------------4-5-4-5/7-9p0 10p0-12p0--9p0-7p0-10p0-|
G------------------------------------------------------------------------|
D------------------------------------------------------------------------|
A------------------------------------------------------------------------|
E------------------------------------------------------------------------|

e---5p4p0---5p4p0---7p5p0---7p5p0--------------------------------|
B----------------------------------4-5-4-5/7---------------------|
G----------------------------------------------------------------|
D----------------------------------------------------------------|
A----------------------------------------------------------------|
E----------------------------------------------------------------|
                                     (full)
e----------------------------------12^---------------------------|
B------9p0 10p0-12p0--9p0-7p0------------------------------------|
G----------------------------------------------------------------|
D----------------------------------------------------------------|
A----------------------------------------------------------------|
E----------------------------------------------------------------|

Gtr.2 (play this all through the solo)
e----------------------------------------------------------------|
B----------------------------------------------------------------|
G----------------------------------------------------------------|
D---------------------------7-7-7-7-7----------------------------|
A---2-2-2-2-2---4-4-4-4-4---5-5-5-5-5--7-7-7-7-7-7---------------|
E---0-0-0-0-0---2-2-2-2-2--------------5-5-5-5-5-4---------------|

Bridge
Gtr.2
e----------------------------------------------------------------|
B----------------------------------------------------------------|
G----------------------------------------------------------------|
D----------------------------------------------------------------|
A--2-2---4-4---7-7---9-9-----------------------------------------|
E--0-0---2-2---5-5---7-7-----------------------------------------|
Gtr.1
e----------------------------------------------------------------|
B----------------------------------------------------------------|
G-----/9----/9----/9----/9---------------------------------------|
D------x-----x-----x-----x---------------------------------------|
A-----/7----/7----/7----/7---------------------------------------|
E---------------------------------14/----------------------------|
                   "You might as well embrace"

Gtr.2
e----------------------------------------------------------------|
B----------------------------------------------------------------|
G----------------------------------------------------------------|
D----------------------------------------------------------------|
A--2-2---4-4---7-7---9-9-----------------------------------------|
E--0-0---2-2---5-5---7-7-----------------------------------------|

Gtr.1
e-----------------------------------------------------------------|
B-----------------------------------------------------------------|
G-----/13----/13----/13----/13------------------------------------|
D------x-----x-----x-----x----------------------------------------|
A-----/11----/11----/11----/11------------------------------------|
E-----------------------------------------------------------------|
"so belbelieve me it's not easy"

3rd chorus x3

e-------------------------|
B-------------------------|
G---------9---------------|
D---------x---------------|
A---------7----7-7--7-7---|
E--0--0--------5-5--4-5---|
 "Im'm in too deep"
 end on
e--------------------------------------|
B--------------------------------------|
G--------9-----------------------------|
D--------x-----------------------------|
A-------7----7---6---4-----------------|
E--0--0-------5---4---2-----4----------|

Play Riff 4A X3             end on
e-------------------------|----------------------------------------|
B-------------------------|----------------------------------------|
G---------13--------------|--------13------------------------------|
D---------x---------------|--------x-------------------------------|
A---------11----7-7--7-7--|--------11---7---6---4------------------|
E--0--0---------5-5--4-5--|--0--0-------5---4---2-----4------------|
Outro
 Gtr.2    Play this x4
e------------------------------------------------------------------------------------------|
B------------------------------------------------------------------------------------------|
G------------------------------------------------9-9-9-9/7-7-7-----------------------------|
D---------------7--7--7--------------------------9-9-9-9/7-7-7-0-0-------------------------|
A--2--2--2--2---5--5--5-----7--7-7-7-7-7-7-7--0--7-7-7-7/5-5-5-0-0--7-7-7-0-10-10-10-0-----|
E--0--0--0--0------------0--5--5-5-5-5-5-5-5--0---------------------5-5-5-0-8--8--8--0-----|

Then
e---------------------------------------------|
B---------------------------------------------|
G---------------------------------------------|
D---------------7--7--7-----------------------|
A--2--2--2--2---5--5--5-----7--7-7-7-7-7-7-7--|
E--0--0--0--0------------0--5--5-5-5-5-5-5-5--|

Gtr.1  play x6
e----------------------------------------------------------------|
B--9-10-9-10-12-10-9-10-9-10-10-9--------------------------------|
G--9--9-9--9-9--9--9--9-9-9--9--9---11-9-11----------------------|
D-----------------------------------11-9-11----------------------|
A----------------------------------------------------------------|
E----------------------------------------------------------------|
Comments