Sum 41 - In Too Deep Chords & Tabs

 

In Too Deep Chords & Tabs

Sum 41 Chords & Tabs

Version: 23 Type: Tab 0 ratings
1 star 2 stars 3 stars 4 stars 5 stars
comments

In Too Deep Tab

                         SUM 41
                    CORRECT VERSION
                 STRAIGHT FROM TAB BOOK


by Slipknot # 7

I got a bit lazy near the end by not typing in all the guitar 2 parts.

Intro:

Guitar 1 (clean)
------------------------------------------------------------
------------------------------------------------------------
------------------------------------------------------------
------------------------------------------------------------
-----------------6--7--9--7------------------------------6--
----7--------7-----------------0---0---0---0---6---7---9----
--0--------0------------------------------------------------



Guitar 2(clean)
------------------------------------------------------------
-----------------------9------------------------------------
-----------------9------------------------------------------
--9---9---9---9-----9-----9-----9---9---9---9---7---6--7--9-
------------------------------------------------------------
------------------------------------------------------------



------------------------------------------------------------
--9----9----9---------5-------10----10------9----9----9-----
--9----9----9---------6--------9-----9------9----9----9-----
--9----9----9---------7-------11----11------9----9----9-----
------------------------------------------------------------
------------------------------------------------------------


------------------------------------------------------------
------------------------------------------------------------
------------------------------------------------------------
--2---2----2---2----2---2---2---2---------------------------
--4---4----2---2----0---0---0---0---------------------------
------------------------------------------------------------



Chorus

------------------------------------------------------------
------------------------------------------------------------
------------------------------------------------------------
-------------0--2---2---2---2---------------0--2---2---2--2-
--2----2-----0--0---0---0---0-----2----2----0--0---0---0--0-
--0----0--------------------------0----0--------------------


------------------------------------------------------------
------------------------------------------------------------
------------------------------------------------------------
-------------0--2---2---2---2----------------------2---2----
--2----2-----0--0---0---0---0-----2------2-----0---0---0----
--0----0--------------------------0------0------------------


------------------------------------------------------------
------------------------------------------------------------
------------------------------------------------------------
-------------0--2---2---2---2---------------0--2---2---2--2-
--2----2-----0--0---0---0---0-----2----2----0--0---0---0--0-
--0----0--------------------------0----0--------------------
  

------------------------------------------------------------
------------------------------------------------------------
-------------------------------------------------------7----
-------------0--2---2---2---2-----9----9------7----7---7----
--2----2-----0--0---0---0---0-----7----7------5----5---5--0-
--0----0--------------------------0----0--------------------


------------------------------------------------------------
------------------------------------------------------------
------------------------------------------------------------
---2---2---2---2--------------------------------------------
---0---0---0---0-----------X--X--X--X--X--X--X--------------
---------------------------X--X--X--X--X--X--X--------------



Interlude

------------------------------------------------------------
------------------------------------------------------------
----------9------------2------------------9-----------2-----
----------x--0--2--2---2----2-------------x--0--2--2--2---2-
-2---2----7--0--0--0---x----0----2---2----7--0--0--0--x---0-
-0---0-----------------4---------0---0----------------4-----

[ Tab from: http://www.guitartabs.cc/tabs/s/sum_41/in_too_deep_tab_ver_23.html ]
Guitar 1
------------------------------------------------------------
----------------------2-------------------------------------
--------13------------2----------------13-------------------
---------x---0--2--2--x---2-------------x-------------------
-2--2---11---0--0--0--4---0-----2--2---11------7--6--4--6---
-0--0---------------------------0--0--------5--5--4--2--4---



Guitar 2

------------------------------------------------------------
----------------------2-------------------------------------
---------9------------2-----------------9-------------------
---------x---0--2--2--x---2-------------x------2------------
-2--2----7---0--0--0--4---0-----2--2----7---0--0----6--4--6-
-0--0---------------------------0--0----------------4--2--4-



Verse 

------------------------------------------------------------
------------------------------------------------------------
------------------------------------------------------------
---------------6-----------------------------------6--------
--2-2----------6---7-7----------7-----2-2----------6--------
--0-0----------4---5-5----------5-----0-0----------4--------


------------------------------------------------------------
------------------------------------------------------------
------------------------------------------------------------
------------------------------------------------------------
--7--7------6----7---7-----7--------------------------------
--5--5------4----5---5-----5--------------------------------


Pm-----------------------------------------------|
------------------------------------------------------------
------------------------------------------------------------
------------------------------------------------------------
------------------------2--2--2--2--2--2--2-----------------
--2--2--2--2--2--2--2---0--0--0--0--0--0--0----2--2--2--2--2
--0--0--0--0--0--0--0-----------------------0--0--0--0--0--0
  


Interlude

------------------------------------------------------------
------------------------------------------------------------
------------------------------------------------------------
------------------------------------------------------------
--------------7--------------7--------------7---------------
--0--0--0--0-----0--0--0--0-----0--0--0--0-----0------------



Solo

----5p4p0--5p4p0--7p5p0--7p5p0------------------------------
---------------------------------7p9p7-9/10-----------------
------------------------------------------------------------
------------------------------------------------------------
------------------------------------------------------------
------------------------------------------------------------


------------------------------------------------------------
---9p0--10p0--12--10p0--9p0--7--9--10-----------------------
------------------------------------------------------------
------------------------------------------------------------
------------------------------------------------------------
------------------------------------------------------------


----5p4p0--5p4p0--7p5p0--7p5p0------------------------------
---------------------------------7p9p7-9/10-----------------
------------------------------------------------------------
------------------------------------------------------------
------------------------------------------------------------
------------------------------------------------------------


------------------------------------16b---------------------
---9p0--10p0--12--10p0--9p0--7------------------------------
------------------------------------------------------------
------------------------------------------------------------
------------------------------------------------------------
------------------------------------------------------------

-------------------------------------------x6---------------
------------------------------------------------------------
------------------------------------------------------------
---------------------2---2---4---4--------------------------
--2---2----4---4-----0---0---2---2--------------------------
--0---0----2---2--------------------------------------------


Outro

----------------------------------------------------------x9
--9--10--9--10--12--10--9--10--9--10--9--10--9--------------
--9---9--9--9----9---9--9---9--9---9--9---9--9--11--9--11---
-------------------------------------------------9--9---9---
------------------------------------------------11--9--11---
------------------------------------------------------------
Comments