Sum 41 - In Too Deep Chords & Tabs

 

In Too Deep Chords & Tabs

Sum 41 Chords & Tabs

Version: 2 Type: Tab 0 ratings
1 star 2 stars 3 stars 4 stars 5 stars
comments

In Too Deep Tab

   
Sum 41 - In Too Deep
From "All Killer, No Filler"

Tabbed by Iain Jones (unreal525@hotmail.com)


Tuning: Normal

This is most the tab I think its right but feel free to play about with the notes


INTRO and the Beginning of the 1st VERSE

Guitar #1
e|------------------------------------------------------------------------------|
B|---------------9-------------------------------------9------------------------|
G|-----------9-------------------------------------9----------------------------|
D|---9-9-9-9---9---9----9-9-9-9-7-6-7-9----9-9-9-9---9---9----9-9-9-9-7-6-4-2---|
A|------------------------------------------------------------------------------|
E|------------------------------------------------------------------------------|



I havn't figured out the guitar 2



Guitar #1 plays INTRO

Guitar #2 plays this:
   E   A
e|--0---5----------------------|
B|--0---5----------------------|
G|--1---6----------------------|
D|--2---7----------------------|
A|-----------------------------|
E|-----------------------------|



CHORUS 
							  x2 
e|------------------------------------------------------------|--------------
B|---------10-10-10-10--------10-10-10-10--------10-10-10-10--|--------------
G|---9--9--9--9--9--9---9--9--9--9--9--9---9--9--9--9--9--9---|-9-9-9-9-7-7--
D|---9--9--7--7--7--7---9--9--7--7--7--7---9--9--7--7--7--7---|-9-9-9-9-7-7--
A|---7--7---------------7--7---------------7--7---------------|-7-7-7-7-5-5--
E|------------------------------------------------------------|--------------

  CHORUS continued...
|----------------------------------|
|----------------------------------|
|-9-9-9-9-7-7-7-7------------------|
|-9-9-9-9-7-7-7-7-7-7-7-7-7-7-7-7--|
|-7-7-7-7-5-5-5-5-7-7-7-7-7-7-7-7--|
|-----------------5-5-5-5-5-5-5-5--|



BRIDGE BETWEEN CHORUS AND VERSE

e|-----------------|
B|----12-----------|
G|--9-9--9-9-8-9---|
D|--9----9-9-8-9---|
A|--7----7-7-6-7---|
E|-----------------|


Beginning of 2ND Verse

					x2  
e|-------------------------------------------|
B|-------------------------------------------|
G|-------------------------------------------|
D|--2-2----2-7-7----7-2-2---2-7-7--7--7-7--7-|
A|--2-2----2-7-7----7-2-2---2-7-7--7--7-7--7-|
E|--0-0----0-5-5----5-0-0---0-5-5--5--5-5--5-|

Ending of 2nd Verse
[ Tab from: http://www.guitartabs.cc/tabs/s/sum_41/in_too_deep_tab_ver_2.html ]
    				x2  
e|-----------------------------------|
B|-----------------------------------|
G|-----------------------------------|
D|--2---------------7----------------|
A|--2-2-2-2-2-2-2-2-7-7-7-7-7-7-7-7--|
E|--0-0-0-0-0-0-0-0-5-5-5-5-5-5-5-5--|
     pm...........   pm...........




(--Play Chorus again--)


--SOLO--

Guitar 1

e|--5p4-7p6---------------------------12-----|
B|----------4-5-4-7-9--10-12-10-9-7----------|
G|-------------------------------------------|
D|-------------------------------------------|
A|-------------------------------------------|
E|-------------------------------------------|

this is about right i think have a go and see if u can perfect it

Guitar 2

e--
B--
G--not done yet (its similar to guitar for 3rd verse, but not identical)
D--
A--
E--

--3RD Verse--

Guitar 1

                      x6  
e-------------------------|
B-------------------------|
G-------------------------|
D--2-2---4-4---7-7---9-9--|
A--2-2---4-4---7-7---9-9--|
E--0-0---2-2---5-5---7-7--|

note: after the 4th time there is long pick scrape

Guitar #2

e-------
B--
G- once again not done this bit
D--
A--
E------

--LAST CHORUS--

                  |		   |
e-----------------|----------------|
B----12-----------|----12----------|
G--9-9--9-9-8-9---|--9-9--9-8-6-4--|
D--9----9-9-8-9---|--9----9-8-6-4--|
A--7----7-7-6-7---|--7----7-6-4-2--|
E-----------------|----------------|




Post-Chorus-Pre-Outro

e--------------------------
B--------------------------
G--9-9-9-9-7-7-7-7---------
D--9-9-9-9-7-7-7-7-7-7-7-7-
A--7-7-7-7-5-5-5-5-7-7-7-7-
E------------------5-5-5-5-


OUTRO-Part 1

Guitar #1

e---------------------------------------------------|
B---------------------------------------------------|
G--13-14-13-14-16-14-13-14-13-14-13-14-13-----------|
D-----------------------------------------16-14-16--|
A---------------------------------------------------|
E---------------------------------------------------|

Guitar #2

e-----------------------------------|
G-----------------------------------|
B--9-9-9-9-7-7-7-7---------5-5-5-5--|
D--9-9-9-9-7-7-7-7-7-7-7-7-5-5-5-5--|
A--7-7-7-7-5-5-5-5-7-7-7-7-3-3-3-3--|
E------------------5-5-5-5----------|

Outro Part 2

Guitar #1 keeps playing OUTRO-part 1


So thats as much as i've worked out try and work out the other bits and happy playing

Comments