Sum 41 - In Too Deep Solo Chords & Tabs

 

In Too Deep Solo Chords & Tabs

Sum 41 Chords & Tabs

Version: 3 Type: Tab 2 ratings
1 star 2 stars 3 stars 4 stars 5 stars
comments

In Too Deep Solo Tab

#-----------------------------------------------------------------------------#
#-- File created with Instab - http://www.pconline.com/~smcarey/instab.html --#
#-----------------------------------------------------------------------------#

Author/Artist: Sum 41
Title: In Too Deep [Solo] [PROPER]
Album: All Killer No Filler
Transcribed by: Rishesh Singh
Email: Sheesh@attbi.com

-5p4p0--5p4p0--7p5p0--7p5p0--2-4-2-4-5--4-5-7-5-4-2-4-5-----------------------
-----------------------------4-5-4-5-7----------------------------------------
------------------------------------------------------------------------------
------------------------------------------------------------------------------
------------------------------------------------------------------------------
------------------------------------------------------------------------------
                                                                              
[ Tab from: http://www.guitartabs.cc/tabs/s/sum_41/in_too_deep_solo_tab_ver_3.html ]
-5p4p0--5p4p0--7p5p0--7p5p0--2-4-2-4-5--4-5-7-5-4-2-4-5-----------------------
------------------------------------------------------------------------------
------------------------------------------------------------------------------
------------------------------------------------------------------------------
------------------------------------------------------------------------------
------------------------------------------------------------------------------
                                                                              

------------------------------------------------------------------------------
-----------------------------4-5-4-5-7----------------------------------------
------------------------------------------------------------------------------
------------------------------------------------------------------------------
------------------------------------------------------------------------------
------------------------------------------------------------------------------
                                                                              

------------------------------------------------------------------------------
------------------------------------------------------------------------------
------------------------------------------------------------------------------
------------------------------------------------------------------------------
------------------------------------------------------------------------------
------------------------------------------------------------------------------
                                                                              

Comments