Sum 41 - In Too Deep Solo Chords & Tabs

 

In Too Deep Solo Chords & Tabs

Sum 41 Chords & Tabs

Version: 2 Type: Tab 0 ratings
1 star 2 stars 3 stars 4 stars 5 stars
comments

In Too Deep Solo Tab

---------------------------------YOU BEST NOTE-------------------------------#
#This file is the author's own work and represents their interpretation of the#
#song. You may only use this file for private study, scholarship, or research.#
#-----------------------------------------------------------------------------#
#---------------------------------YOU BEST NOTE-------------------------------#
#This file is the author's own work and represents their interpretation of the#
#song. You may only use this file for private study, scholarship, or research.#
#-----------------------------------------------------------------------------#


Sum 41

THE CORRECT WAY TO PLAY the solo in In Too Deep @ 1:51

Transcribed by Brian S.

solo  guitar 1 - high
      guitar 2 - low	
[ Tab from: http://www.guitartabs.cc/tabs/s/sum_41/in_too_deep_solo_tab_ver_2.html ]
  
Guitar I
e--5p4p0-5p4p0--7p4p0-7p4p0---------------------------------------|
b---------------------------4--5--4--5--/7vv-0-9p0-10p0-12p0-10p0-|
g-----------------------------------------------------------------|
d-----------------------------------------------------------------|
a-----------------------------------------------------------------|
e-----------------------------------------------------------------|
Guitar II
e-----------------------------------------------------------------|
b-----------------------------------------------------------------|
g--------------------------11-13-11-13-/14vv----------------------|
d-----------------------------------------------------------------|
a-----------------------------------------------------------------|
e-----------------------------------------------------------------|

Guitar I
e---------------------5p4p0-5p4p0--7p4p0-7p4p0--------------------|
b---9p0-7p0-9p0-10p0---------------------------4--5--4--5--/7vvv--|
g-----------------------------------------------------------------|
d-----------------------------------------------------------------|
a-----------------------------------------------------------------|
e-----------------------------------------------------------------|
Guitar II
e-----------------------------------------------------------------|
b-----------------------------------------------------------------|
g---------------------------------------------11-13-11-13-/14vvv--|
d-----------------------------------------------------------------|
a-----------------------------------------------------------------|
e-----------------------------------------------------------------|

Guitar I
e---------------------------------12vvvb14vvr12vvvv-|
b--0--9p0-10p0-12p0-10p0-9p0-7p0--------------------|
g---------------------------------------------------|
d---------------------------------------------------|
a---------------------------------------------------|
e---------------------------------------------------|
Guitar II
e---------------------------------16vvvb17vvr16vvvv-|
b---------------------------------------------------|
g---------------------------------------------------|
d---------------------------------------------------|
a---------------------------------------------------|
e---------------------------------------------------|
Comments