Sum 41 - In Too Deep Chords & Tabs

 

In Too Deep Chords & Tabs

Sum 41 Chords & Tabs

Version: 6 Type: Bass Tab 0 ratings
1 star 2 stars 3 stars 4 stars 5 stars
comments

In Too Deep Bass Tab

   
Artist: Sum 41
Song: In too deep
Tabbed by Clement Peerens
I think the tab is as good as perfect and when I play it this way,
it sounds perfect, so have fun with it

Intro
G|--------------------------
D|----7------7-----99-00----
A|-----77-----77---------2--
E|--------------------------

Verse
G|------------------9-9------------------------------
D|---------------------------------------------------
A|--7-7--9-9-11-11------0-0-2-2-4-4-6-6-7-7-9-9-11-11
E|---------------------------------------------------

G|-----------------
D|11-11-9-9-7-7-9-9
A|-----------------
E|-----------------

Chorus
G|-----------------
D|-----------------
A|-----------------
E|0-0-0-0-4-5-5-5-4 x7

G|-------------------------------------
D|-------------------------------------
A|7-7-7-7-5-5-5-5-0-0-0-0-7/12-12-12-12
E|-------------------------------------

Verse 2
G|-----------------------------------------
D|-----------------------------------------
A|-2-7------2-7------2-7/11------2-7/11----
E|0---5545-0---5545-0------5545-0------5424

G|-----------------------------------
D|-----------------------------------
A|-----------------------------------
E|-0-0---4-55---5-00---4-55---4-55--5 x2

Pre-chorus 
G|-----------------------------------
D|-----------------------------------
A|---------00000000----------00000000
E|00000000----------00000000---------

Chorus 2
G|-----------------
D|-----------------
A|-----------------
E|0-0-0-0-4-5-5-5-4 x7
[ Tab from: http://www.guitartabs.cc/tabs/s/sum_41/in_too_deep_btab_ver_6.html ]
G|--------------------------------
D|--------------------------------
A|7-7-7-7-5-5-5-5-0-0-0-0-0-0-0-0-
E|--------------------------------

G|-------------------------------------
D|-------------------------------------
A|7-7-7-7-5-5-5-5-0-0-0-0-7/12-12-12-12
E|-------------------------------------   

(one moment no bass)

Guitar solo
G|------------------
D|------------------
A|-------5-5--------
E|0-0-2-2----5-5-5-4 x2

Bridge
G|--------------------
D|--------------------
A|-----------0-0--2-2-
E|-0-0--2-2----------- x4

G|---------------------------------------
D|---------------------------------------
A|7-7-7-7-9-9-9-9-12-12-12-12-14-14-14-14
E|---------------------------------------

G|--------------------------------------
D|--------------------------------------
A|7-7-7-7-9-9-9-9-12--rest---12-12-12-12
E|--------------------------------------

Last Chorus
G|--------------------------------------------------------------
D|--------------------------------------------------------------
A|-2-7------2-7------2-7------2-7------2-7------2-7------2-7----
E|0---5545-0---5545-0---5545-0---5424-0---5545-0---5545-0---5545

G|--------------------------------------------------------------
D|--------------------------------------------------------------
A|-7-7-7-7-5-5-5-5-0-0-0-0-0-0-0-7-7-7-7-5-5-5-5-0-0-0-0-3-3-3-3
E|-------------------------------------------------------------- x2

Outro 1
G|-----------------------------------------
D|-----------------------------------------
A|-7-7-7-7-5-5-5-5-0-0-0-0-7/12-12-12-12-11
E|----------------------------------------- x5 

(Outro 2 only guitar)
Comments