Sum 41 - In Too Deep Chords & Tabs

 

In Too Deep Chords & Tabs

Sum 41 Chords & Tabs

Version: 5 Type: Bass Tab 0 ratings
1 star 2 stars 3 stars 4 stars 5 stars
comments

In Too Deep Bass Tab

Song: in too deep
Artist: Sum 41
Album: all killer no filler

intro
G---------------------------------------------------------------------
D-7-----7-------99----------66--------------66------------------------
A---77----77-------66-77-99-----------77-99---------------------------
E------------------------------554455----------55--4/0/4-55555555-----

Chorus

G---------------------------------------------------------------------
D---------------------------------------------------------------------
A---------------------------------------------------------------------
E-000055550000555500005555000054-00005555000055550000555500054--------

G---------------------------------------------------------------------
D---------------------------------------------------------------------
A-77775555------------------------------------------------------------
E---------555555555---------------------------------------------------

Break Part

G---------------------------------------------------------------------
D---------------------------------------------------------------------
A---7------7------7------7--------------------------------------------
E-00-554500-554500-554500-5424----------------------------------------

Verse

G---------------------------------------------------------------------
D---------------------------------------------------------------------
A---------------------------------------------------------------------
E-00--455--500--455455--00--455--500--455455--------------------------

Maybe we're just tryin' to hard...
[ Tab from: http://www.guitartabs.cc/tabs/s/sum_41/in_too_deep_btab_ver_5.html ]
G---------------------------------------------------------------------
D---------------------------------------------------------------------
A---------------------------------------------------------------------
E-000000055555550000005555555-----------------------------------------

Chorus

Solo Part

G---------------------------------------------------------------------
D---------------------------------------------------------------------
A----0/7---0/7---0/7-------------------55555--------------------------
E-000---000---000---000---00000---22222-----55555---------------------

After Solo...

G---------------------------------------------------------------------
D---------------------------------------------------------------------
A---------------------------------------------------------------------
E-00---22---55---77---------------------------------------------------

Maybe, it's not easy...

G---------------------------------------------------------------------
D---------------------------------------------------------------------
A-77---99---11---12---77---99---11------------------------------------
E---------------------------------------------------------------------

Here is the chorus but instead u play the break part

Outro

G---------------------------------------------------------------------
D---------------------------------------------------------------------
A-7777-5555----3333---------------------------------------------------
E----------5555-------------------------------------------------------

Thats it!! This is is 99% percent correct, the only part im not sure of is the slide at the beginning.  If there is n e thing wrong with it, u can e-mail me at mark_hoppus_rules@hotmail.com
Comments