Sum 41 - In Too Deep Chords & Tabs

 

In Too Deep Chords & Tabs

Sum 41 Chords & Tabs

Version: 2 Type: Bass Tab 0 ratings
1 star 2 stars 3 stars 4 stars 5 stars
comments

In Too Deep Bass Tab

Artist: Sum 41
Song: In Too Deep
Album: All Killer No Filler



VERSE 1 (00:16)
                                                                
G||-----------------|--------------------|-----------------|
D||--------------7--|--------------------|--------------7--|
A||-----------------|--7--7--------------|-----------------|
E||-----------------|--------------------|-----------------|
                                                                         
-------------------|---------------------|-------------------9-9--|
-------------------|--------9---9-0-0----|------------------------|
--7----------------|------------------2/-|--7-7-9-9/---11-11------|
-------------------|---------------------|------------------------|
                                                        
-----------------------|---------------------------|----------------------|
-----------------------|----------------------12\--|----7-7-7---7-7/-9-9--|
--0-0-2-2/---4-4/-6-6--|--7-7/-9-9/---11-11--------|--0-------------------|
-----------------------|---------------------------|----------------------|


CHORUS 1 (00:33)
                                                         
----------------------|----------------------|
------2---------------|----------------------|
----------------------|----------------------|
--0-0---3/---5-5-5-5--|--0-0-0-3/---5-5-5-5--|


                                                                               
----------------------|----------------------|----------------------|
-----------------7----|----------------------|----------------------|
----------------------|----------------------|----------------------|
--0-0-0-3/---5-5---5--|--0-0-0-3/---5-5------|--0-0-0-3/---5-5-5-5--|


                                                      
----------------------|-----------------------|
----------------------|-----------------------|
----------------------|-------------------2/--|
--0-0-0-3/---5-5-5-5--|--0-0-0-3/---5-5-5-----|


                                                           
---------------------|--------------------------|
---------------------|-------------7777---7777--|
--7-7-7-7---5-5-5-5--|--0-0-0-2/----------------|
---------------------|--------------------------|
                                                       
------------------------|------------------------|------------------------|
------------------------|------------------------|------------------------|
----2/---7-7---0-0---0--|----2/---7-7---0-0---0--|----2/---7-7---0-0---0--|
--0----------------4----|--0----------------4----|--0----------------4----|

----------------------------|
----------------------------|
----2/---7-9/---12-11-9-11--|
--0-------------------------|


VERSE 2 (1:00)
                                                                     
------------------|------------------|------------------|-------------------|
------------------|------------------|------------------|-------------------|
------------------|------------------|------------------|-------------------|
--0-0----------4--|--5-5----------5--|--0-0----------4--|--5-5--4---5-5--5--| REPEAT 1x

---------------------|----------------------|---------------------|---------------------|
---------------------|----------------------|---------------------|--7-7-7-7---7-7-7-7--|
---------------------|--0-0-0-0---0-0-0-2/--|--7-7-7-7---7-7-7-7--|---------------------|
--0-0-0-0---0-0-0-0--|----------------------|---------------------|---------------------|

[ Tab from: http://www.guitartabs.cc/tabs/s/sum_41/in_too_deep_btab_ver_2.html ]
CHORUS 2 (1:24)
                                                         
----------------------|----------------------|
------2---------------|----------------------|
----------------------|----------------------|
--0-0---3/---5-5-5-5--|--0-0-0-3/---5-5-5-5--|                                                                     
          
----------------------|----------------------|----------------------|
-----------------7----|----------------------|----------------------|
----------------------|----------------------|----------------------|
--0-0-0-3/---5-5---5--|--0-0-0-3/---5-5------|--0-0-0-3/---5-5-5-5--|
                                                      
----------------------|-----------------------|
----------------------|-----------------------|
----------------------|-------------------2/--|
--0-0-0-3/---5-5-5-5--|--0-0-0-3/---5-5-5-----|
                                                          
---------------------|----------------------|---------------------|
---------------------|----------------------|----------------7----|
--7-7-7-7---5-5-5-5--|--0-0-0-0---0-0-0-2/--|--7-7-7-7---5-5---5--|
---------------------|----------------------|---------------------|

--------------------------|-------------------|--------------------------|
-------------7777---7777--|---ONE MEAS. REST--|--------------------------|
--0-0-0-2/----------------|-------------------|---------1212---12121414--|
--------------------------|-------------------|--------------------------|


GUITAR SOLO (1:51)
                                                                    
-------------------------|-------------------------|
-------------------------|-------------------------|
-------------------------|--5555---5---------------|
--0000---0-----2222---2--|-------------5555---5-4--| REPEAT 1x


BRIDGE 2 (2:00)
                                                         
----------------|----------------|
----------------|----------------|
----------------|--0-0------2-2--|
--0-0------2-2--|----------------| REPEAT 2x

----------------|---------------------|---------------------|
----------------|---------------------|---------------------|
----------------|--0-0------2-2-0-2/--|--7-7-7-7---9-9-9-9--|
--0-0------2-2--|---------------------|---------------------|
                                                      
------------------------|---------------------|
--7-7-7-7/---9-9-9-9\---|---------------------|
------------------------|--7-7-7-7---9-9-9-9--|
------------------------|---------------------|
                                 
------------------------|
--7--------7777---7777--|
------------------------|
------------------------|


CHORUS 3 (2:24)

------------------------|------------------------|------------------------|
------------------------|------------------------|------------------------|
----2/---7-7---0-0---0--|----2/---7-7---0-0---0--|----2/---7-7---0-0---0--|
--0----------------4----|--0----------------4----|--0----------------4----|

----------------------------|------------------------|------------------------|
----------------------------|------------------------|------------------------|
----2/---7-9/---12-11-9-11--|----2/---7-7---0-0---0--|----2/---7-7---0-0---0--|
--0-------------------------|--0----------------4----|--0----------------4----|

------------------------|----------------------|----------------------|
------------------------|----------------------|----------------------|
----2/---7-7---0-0---0--|--7-7-7-7\---5-5-5-5--|--0-0-0-0---0-0-0-2/--|
--0----------------4----|----------------------|----------------------|

----------------------|--------------------------|----------------------|
----------------------|-------------10-10-10-9\--|----------------------|
--7-7-7-7\---5-5-5-5--|--0-0-0-0/----------------|--7-7-7-7\---5-5-5-5--|
----------------------|--------------------------|----------------------|

----------------------|
----------------------|
--0-0-0-0---0-0-0-2/--|
----------------------|

(2:51)

----------------------|--------------------------|
----------------------|-------------10-10-10-9\--|
--7-7-7-7\---5-5-5-5--|--0-0-0-0/----------------|
----------------------|--------------------------| REPEAT 6x

FILL 1 (3:06, 3:14)

----------------11--------|
-------------10----10-12--|
--0-0-0-0/----------------| REPEAT 2x
--------------------------| AT MIN. 2:51 SUB. FILL 1 ON 4TH AND 6TH TIMES


OUTRO (3:16)

--------------|
--------------|
--7-----------|
--------------| REPEAT 5x


                            






Comments