Sum 41 - In Too Deep Chords & Tabs

 

In Too Deep Chords & Tabs

Sum 41 Chords & Tabs

Version: 1 Type: Bass Tab 2 ratings
1 star 2 stars 3 stars 4 stars 5 stars
comments

In Too Deep Bass Tab

Sum 41
In Too Deep
tabbed by: jhurley12

Intro
G-------------------------|
D-7------7----------99--|
A--77-----77----------66|
E--------------------------|

Verse 1
G-----------------------------------------------|
D-------66--------------------66------------|
A-77-99-----------------77-99---------------|
E-------------55-44-55------------55555555|

Chorus 1     (x7)        (x1)                                    (x3)          (x1)
G---------------------|-------------------------------------|-------------|----------|
D---------------------|-------------------------------------|-------------|----------|
A---------------------|--7-7-7-7--5-5-5-5-------------------|------7------|-----7----|
E-0-0-0-0--5-5-5-5----|----------------------5-5-5-5-5-5-5-5|--00-----5545|--00--5424|

Verse 2          (x2)                                     (x2)
G----------------------------|-----------------------------------------|
D----------------------------|-----------------------------------------|
A----------------------------|-----------------------------------------|
E-00--455--5-00--4-55-455--5-|-0-0-0-0-0-0-0-0--5-5-5-5-5-5-5-5--------|
[ Tab from: http://www.guitartabs.cc/tabs/s/sum_41/in_too_deep_btab.html ]
Chorus 2    (x6)                       (x2)
G------------------|--------------------------------------|
D------------------|--------------------------------------|
A------------------|--7-7-7-7--5-5-5-5--------------------|
E-0-0-0-0--5-5-5-5-|-----------------------5-5-5-5-5-5-5-5|

Guitar Solo   (x2)
G----------------------------|
D----------------------------|
A----------------55555-------|
E-00000-22222-----------55555|

Bridge    (x4)                             (x1)
G---------------|-------------------------------------------|
D---------------|-------------------------------------------|
A---------------|--77~--99~--11-11~--12-12~/77~--99~--11-11-|
E-00--22--55--77|-------------------------------------------|

Chorus 3  (x3)          (x1)          (x3)
G----------------|--------------|-------------|
D----------------|--------------|-------------|
A----7-----------|----7---------|----7--------|
E-00---5545------|-00---5424----|-00---5545---|

Outro                (x2)
G-----------------------------------------------------------------------|
D-----------------------------------------------------------------------|
A-7-7-7--5-5-5-5--0-0-0-0-0-0-0-0----7-7-7-7--5-5-5-5--0-0-0-0--3-3-3-3-|
E-----------------------------------------------------------------------|

then play this till the bass cuts out
A-7-7-7-7--5-5-5-5--0-0-0-0--3-3-3-3-|

comments, questions, or corrections e-mail me at jjs_ELEMENT@hotmail.com
Comments